ISO-10303-21;
HEADER;
FILE_DESCRIPTION(('TurboCAD Mac Pro'),'Build 980');
FILE_NAME('P1941.stp','  ',(''),(''),'ACIS Interop','IMSI','TurboCAD Mac Pro BY IMSI, INCORPORATED');
FILE_SCHEMA(('automotive_design'));
ENDSEC;
DATA;
#1=MECHANICAL_DESIGN_GEOMETRIC_PRESENTATION_REPRESENTATION(' ',(#10,#11,#12,#13,#14,#15,#16,#17,#18,#19,#20,#21,#22,#23,#24,#25,#26),#6);
#2=PRODUCT_DEFINITION_CONTEXT('',#27,'design');
#3=APPLICATION_PROTOCOL_DEFINITION('INTERNATIONAL STANDARD','automotive_design',1994,#27);
#4=PRODUCT_CATEGORY_RELATIONSHIP('NONE','NONE',#28,#29);
#5=SHAPE_DEFINITION_REPRESENTATION(#30,#31);
#6= (GEOMETRIC_REPRESENTATION_CONTEXT(3)GLOBAL_UNCERTAINTY_ASSIGNED_CONTEXT((#34))GLOBAL_UNIT_ASSIGNED_CONTEXT((#36,#37,#38))REPRESENTATION_CONTEXT('NONE','WORKSPACE'));
#10=STYLED_ITEM('',(#40),#41);
#11=STYLED_ITEM('',(#42),#43);
#12=STYLED_ITEM('',(#44),#45);
#13=STYLED_ITEM('',(#46),#47);
#14=STYLED_ITEM('',(#48),#49);
#15=STYLED_ITEM('',(#50),#51);
#16=STYLED_ITEM('',(#52),#53);
#17=STYLED_ITEM('',(#54),#55);
#18=STYLED_ITEM('',(#56),#57);
#19=STYLED_ITEM('',(#58),#59);
#20=STYLED_ITEM('',(#60),#61);
#21=STYLED_ITEM('',(#62),#63);
#22=STYLED_ITEM('',(#64),#65);
#23=STYLED_ITEM('',(#66),#67);
#24=STYLED_ITEM('',(#68),#69);
#25=STYLED_ITEM('',(#70),#71);
#26=STYLED_ITEM('',(#72),#73);
#27=APPLICATION_CONTEXT(' ');
#28=PRODUCT_CATEGORY('part','NONE');
#29=PRODUCT_RELATED_PRODUCT_CATEGORY('detail',' ',(#74));
#30=PRODUCT_DEFINITION_SHAPE('NONE','NONE',#75);
#31=ADVANCED_BREP_SHAPE_REPRESENTATION('1',(#45,#76),#6);
#34=UNCERTAINTY_MEASURE_WITH_UNIT(LENGTH_MEASURE(1.0E-06),#36,'','');
#36= (CONVERSION_BASED_UNIT('INCH',#79)LENGTH_UNIT()NAMED_UNIT(#82));
#37= (NAMED_UNIT(#84)PLANE_ANGLE_UNIT()SI_UNIT($,.RADIAN.));
#38= (NAMED_UNIT(#84)SOLID_ANGLE_UNIT()SI_UNIT($,.STERADIAN.));
#40=PRESENTATION_STYLE_ASSIGNMENT((#90));
#41=ADVANCED_FACE('',(#91),#92,.T.);
#42=PRESENTATION_STYLE_ASSIGNMENT((#93));
#43=ADVANCED_FACE('',(#94),#95,.T.);
#44=PRESENTATION_STYLE_ASSIGNMENT((#96));
#45=MANIFOLD_SOLID_BREP('1',#97);
#46=PRESENTATION_STYLE_ASSIGNMENT((#98));
#47=ADVANCED_FACE('',(#99),#100,.T.);
#48=PRESENTATION_STYLE_ASSIGNMENT((#101));
#49=ADVANCED_FACE('',(#102),#103,.F.);
#50=PRESENTATION_STYLE_ASSIGNMENT((#104));
#51=ADVANCED_FACE('',(#105),#106,.F.);
#52=PRESENTATION_STYLE_ASSIGNMENT((#107));
#53=ADVANCED_FACE('',(#108),#109,.F.);
#54=PRESENTATION_STYLE_ASSIGNMENT((#110));
#55=ADVANCED_FACE('',(#111),#112,.F.);
#56=PRESENTATION_STYLE_ASSIGNMENT((#113));
#57=ADVANCED_FACE('',(#114,#115,#116,#117,#118,#119),#120,.F.);
#58=PRESENTATION_STYLE_ASSIGNMENT((#121));
#59=ADVANCED_FACE('',(#122),#123,.F.);
#60=PRESENTATION_STYLE_ASSIGNMENT((#124));
#61=ADVANCED_FACE('',(#125),#126,.F.);
#62=PRESENTATION_STYLE_ASSIGNMENT((#127));
#63=ADVANCED_FACE('',(#128),#129,.F.);
#64=PRESENTATION_STYLE_ASSIGNMENT((#130));
#65=ADVANCED_FACE('',(#131),#132,.F.);
#66=PRESENTATION_STYLE_ASSIGNMENT((#133));
#67=ADVANCED_FACE('',(#134),#135,.T.);
#68=PRESENTATION_STYLE_ASSIGNMENT((#136));
#69=ADVANCED_FACE('',(#137),#138,.F.);
#70=PRESENTATION_STYLE_ASSIGNMENT((#139));
#71=ADVANCED_FACE('',(#140),#141,.F.);
#72=PRESENTATION_STYLE_ASSIGNMENT((#142));
#73=ADVANCED_FACE('',(#143,#144,#145,#146,#147,#148),#149,.T.);
#74=PRODUCT('1','1','PART-1-DESC',(#150));
#75=PRODUCT_DEFINITION('NONE','NONE',#151,#2);
#76=AXIS2_PLACEMENT_3D('',#152,#153,#154);
#79=LENGTH_MEASURE_WITH_UNIT(LENGTH_MEASURE(25.4),#155);
#82=DIMENSIONAL_EXPONENTS(1.0,0.0,0.0,0.0,0.0,0.0,0.0);
#84=DIMENSIONAL_EXPONENTS(0.0,0.0,0.0,0.0,0.0,0.0,0.0);
#90=SURFACE_STYLE_USAGE(.BOTH.,#156);
#91=FACE_OUTER_BOUND('',#157,.T.);
#92=PLANE('',#158);
#93=SURFACE_STYLE_USAGE(.BOTH.,#159);
#94=FACE_OUTER_BOUND('',#160,.T.);
#95=PLANE('',#161);
#96=SURFACE_STYLE_USAGE(.BOTH.,#162);
#97=CLOSED_SHELL('',(#71,#51,#53,#59,#61,#65,#69,#63,#49,#55,#43,#41,#47,#67,#73,#57));
#98=SURFACE_STYLE_USAGE(.BOTH.,#163);
#99=FACE_OUTER_BOUND('',#164,.T.);
#100=PLANE('',#165);
#101=SURFACE_STYLE_USAGE(.BOTH.,#166);
#102=FACE_OUTER_BOUND('',#167,.T.);
#103=CYLINDRICAL_SURFACE('',#168,0.275590551181102);
#104=SURFACE_STYLE_USAGE(.BOTH.,#169);
#105=FACE_OUTER_BOUND('',#170,.T.);
#106=CYLINDRICAL_SURFACE('',#171,0.275590551181102);
#107=SURFACE_STYLE_USAGE(.BOTH.,#172);
#108=FACE_OUTER_BOUND('',#173,.T.);
#109=CYLINDRICAL_SURFACE('',#174,0.275590551181102);
#110=SURFACE_STYLE_USAGE(.BOTH.,#175);
#111=FACE_OUTER_BOUND('',#176,.T.);
#112=CYLINDRICAL_SURFACE('',#177,0.275590551181102);
#113=SURFACE_STYLE_USAGE(.BOTH.,#178);
#114=FACE_BOUND('',#179,.T.);
#115=FACE_BOUND('',#180,.T.);
#116=FACE_BOUND('',#181,.T.);
#117=FACE_BOUND('',#182,.T.);
#118=FACE_BOUND('',#183,.T.);
#119=FACE_OUTER_BOUND('',#184,.T.);
#120=PLANE('',#185);
#121=SURFACE_STYLE_USAGE(.BOTH.,#186);
#122=FACE_OUTER_BOUND('',#187,.T.);
#123=CYLINDRICAL_SURFACE('',#188,0.275590551181102);
#124=SURFACE_STYLE_USAGE(.BOTH.,#189);
#125=FACE_OUTER_BOUND('',#190,.T.);
#126=CYLINDRICAL_SURFACE('',#191,0.275590551181102);
#127=SURFACE_STYLE_USAGE(.BOTH.,#192);
#128=FACE_OUTER_BOUND('',#193,.T.);
#129=CYLINDRICAL_SURFACE('',#194,0.275590551181102);
#130=SURFACE_STYLE_USAGE(.BOTH.,#195);
#131=FACE_OUTER_BOUND('',#196,.T.);
#132=CYLINDRICAL_SURFACE('',#197,0.275590551181102);
#133=SURFACE_STYLE_USAGE(.BOTH.,#198);
#134=FACE_OUTER_BOUND('',#199,.T.);
#135=PLANE('',#200);
#136=SURFACE_STYLE_USAGE(.BOTH.,#201);
#137=FACE_OUTER_BOUND('',#202,.T.);
#138=CYLINDRICAL_SURFACE('',#203,0.275590551181102);
#139=SURFACE_STYLE_USAGE(.BOTH.,#204);
#140=FACE_OUTER_BOUND('',#205,.T.);
#141=CYLINDRICAL_SURFACE('',#206,0.275590551181102);
#142=SURFACE_STYLE_USAGE(.BOTH.,#207);
#143=FACE_BOUND('',#208,.T.);
#144=FACE_BOUND('',#209,.T.);
#145=FACE_BOUND('',#210,.T.);
#146=FACE_BOUND('',#211,.T.);
#147=FACE_BOUND('',#212,.T.);
#148=FACE_OUTER_BOUND('',#213,.T.);
#149=PLANE('',#214);
#150=PRODUCT_CONTEXT('',#27,'mechanical');
#151=PRODUCT_DEFINITION_FORMATION_WITH_SPECIFIED_SOURCE(' ','NONE',#74,.NOT_KNOWN.);
#152=CARTESIAN_POINT('',(0.0,0.0,0.0));
#153=DIRECTION('',(0.0,0.0,1.0));
#154=DIRECTION('',(1.0,0.0,0.0));
#155= (NAMED_UNIT(#82)LENGTH_UNIT()SI_UNIT(.MILLI.,.METRE.));
#156=SURFACE_SIDE_STYLE('',(#216));
#157=EDGE_LOOP('',(#217,#218,#219,#220));
#158=AXIS2_PLACEMENT_3D('',#221,#222,#223);
#159=SURFACE_SIDE_STYLE('',(#224));
#160=EDGE_LOOP('',(#225,#226,#227,#228));
#161=AXIS2_PLACEMENT_3D('',#229,#230,#231);
#162=SURFACE_SIDE_STYLE('',(#232));
#163=SURFACE_SIDE_STYLE('',(#233));
#164=EDGE_LOOP('',(#234,#235,#236,#237));
#165=AXIS2_PLACEMENT_3D('',#238,#239,#240);
#166=SURFACE_SIDE_STYLE('',(#241));
#167=EDGE_LOOP('',(#242,#243,#244,#245));
#168=AXIS2_PLACEMENT_3D('',#246,#247,#248);
#169=SURFACE_SIDE_STYLE('',(#249));
#170=EDGE_LOOP('',(#250,#251,#252,#253));
#171=AXIS2_PLACEMENT_3D('',#254,#255,#256);
#172=SURFACE_SIDE_STYLE('',(#257));
#173=EDGE_LOOP('',(#258,#259,#260,#261));
#174=AXIS2_PLACEMENT_3D('',#262,#263,#264);
#175=SURFACE_SIDE_STYLE('',(#265));
#176=EDGE_LOOP('',(#266,#267,#268,#269));
#177=AXIS2_PLACEMENT_3D('',#270,#271,#272);
#178=SURFACE_SIDE_STYLE('',(#273));
#179=EDGE_LOOP('',(#274,#275));
#180=EDGE_LOOP('',(#276,#277));
#181=EDGE_LOOP('',(#278,#279));
#182=EDGE_LOOP('',(#280,#281));
#183=EDGE_LOOP('',(#282,#283));
#184=EDGE_LOOP('',(#284,#285,#286,#287));
#185=AXIS2_PLACEMENT_3D('',#288,#289,#290);
#186=SURFACE_SIDE_STYLE('',(#291));
#187=EDGE_LOOP('',(#292,#293,#294,#295));
#188=AXIS2_PLACEMENT_3D('',#296,#297,#298);
#189=SURFACE_SIDE_STYLE('',(#299));
#190=EDGE_LOOP('',(#300,#301,#302,#303));
#191=AXIS2_PLACEMENT_3D('',#304,#305,#306);
#192=SURFACE_SIDE_STYLE('',(#307));
#193=EDGE_LOOP('',(#308,#309,#310,#311));
#194=AXIS2_PLACEMENT_3D('',#312,#313,#314);
#195=SURFACE_SIDE_STYLE('',(#315));
#196=EDGE_LOOP('',(#316,#317,#318,#319));
#197=AXIS2_PLACEMENT_3D('',#320,#321,#322);
#198=SURFACE_SIDE_STYLE('',(#323));
#199=EDGE_LOOP('',(#324,#325,#326,#327));
#200=AXIS2_PLACEMENT_3D('',#328,#329,#330);
#201=SURFACE_SIDE_STYLE('',(#331));
#202=EDGE_LOOP('',(#332,#333,#334,#335));
#203=AXIS2_PLACEMENT_3D('',#336,#337,#338);
#204=SURFACE_SIDE_STYLE('',(#339));
#205=EDGE_LOOP('',(#340,#341,#342,#343));
#206=AXIS2_PLACEMENT_3D('',#344,#345,#346);
#207=SURFACE_SIDE_STYLE('',(#347));
#208=EDGE_LOOP('',(#348,#349));
#209=EDGE_LOOP('',(#350,#351));
#210=EDGE_LOOP('',(#352,#353));
#211=EDGE_LOOP('',(#354,#355));
#212=EDGE_LOOP('',(#356,#357));
#213=EDGE_LOOP('',(#358,#359,#360,#361));
#214=AXIS2_PLACEMENT_3D('',#362,#363,#364);
#216=SURFACE_STYLE_FILL_AREA(#365);
#217=ORIENTED_EDGE('',*,*,#366,.T.);
#218=ORIENTED_EDGE('',*,*,#367,.F.);
#219=ORIENTED_EDGE('',*,*,#368,.F.);
#220=ORIENTED_EDGE('',*,*,#369,.T.);
#221=CARTESIAN_POINT('',(0.0,-1.5748031496063,0.0));
#222=DIRECTION('',(9.57088814332032E-17,-1.0,0.0));
#223=DIRECTION('',(0.0,0.0,-1.0));
#224=SURFACE_STYLE_FILL_AREA(#370);
#225=ORIENTED_EDGE('',*,*,#371,.T.);
#226=ORIENTED_EDGE('',*,*,#369,.F.);
#227=ORIENTED_EDGE('',*,*,#372,.F.);
#228=ORIENTED_EDGE('',*,*,#373,.T.);
#229=CARTESIAN_POINT('',(0.0,0.0,0.0));
#230=DIRECTION('',(1.0,0.0,0.0));
#231=DIRECTION('',(0.0,0.0,-1.0));
#232=SURFACE_STYLE_FILL_AREA(#374);
#233=SURFACE_STYLE_FILL_AREA(#375);
#234=ORIENTED_EDGE('',*,*,#376,.T.);
#235=ORIENTED_EDGE('',*,*,#377,.F.);
#236=ORIENTED_EDGE('',*,*,#378,.F.);
#237=ORIENTED_EDGE('',*,*,#367,.T.);
#238=CARTESIAN_POINT('',(-9.13385826771654,-1.5748031496063,0.0));
#239=DIRECTION('',(-1.0,0.0,0.0));
#240=DIRECTION('',(0.0,0.0,1.0));
#241=SURFACE_STYLE_FILL_AREA(#379);
#242=ORIENTED_EDGE('',*,*,#380,.T.);
#243=ORIENTED_EDGE('',*,*,#381,.F.);
#244=ORIENTED_EDGE('',*,*,#382,.T.);
#245=ORIENTED_EDGE('',*,*,#383,.F.);
#246=CARTESIAN_POINT('',(-6.45669291338583,-0.78740157480315,0.0));
#247=DIRECTION('',(-0.0,-0.0,-1.0));
#248=DIRECTION('',(-1.0,0.0,0.0));
#249=SURFACE_STYLE_FILL_AREA(#384);
#250=ORIENTED_EDGE('',*,*,#380,.F.);
#251=ORIENTED_EDGE('',*,*,#385,.F.);
#252=ORIENTED_EDGE('',*,*,#382,.F.);
#253=ORIENTED_EDGE('',*,*,#386,.F.);
#254=CARTESIAN_POINT('',(-6.45669291338583,-0.78740157480315,0.0));
#255=DIRECTION('',(-0.0,-0.0,-1.0));
#256=DIRECTION('',(-1.0,0.0,0.0));
#257=SURFACE_STYLE_FILL_AREA(#387);
#258=ORIENTED_EDGE('',*,*,#388,.F.);
#259=ORIENTED_EDGE('',*,*,#389,.F.);
#260=ORIENTED_EDGE('',*,*,#390,.F.);
#261=ORIENTED_EDGE('',*,*,#391,.F.);
#262=CARTESIAN_POINT('',(-4.56692913385827,-0.78740157480315,0.0));
#263=DIRECTION('',(-0.0,-0.0,-1.0));
#264=DIRECTION('',(-1.0,0.0,0.0));
#265=SURFACE_STYLE_FILL_AREA(#392);
#266=ORIENTED_EDGE('',*,*,#393,.T.);
#267=ORIENTED_EDGE('',*,*,#394,.F.);
#268=ORIENTED_EDGE('',*,*,#395,.T.);
#269=ORIENTED_EDGE('',*,*,#396,.F.);
#270=CARTESIAN_POINT('',(-8.34645669291339,-0.787401574803149,0.0));
#271=DIRECTION('',(-0.0,-0.0,-1.0));
#272=DIRECTION('',(-1.0,0.0,0.0));
#273=SURFACE_STYLE_FILL_AREA(#397);
#274=ORIENTED_EDGE('',*,*,#398,.T.);
#275=ORIENTED_EDGE('',*,*,#399,.T.);
#276=ORIENTED_EDGE('',*,*,#400,.T.);
#277=ORIENTED_EDGE('',*,*,#401,.T.);
#278=ORIENTED_EDGE('',*,*,#402,.T.);
#279=ORIENTED_EDGE('',*,*,#391,.T.);
#280=ORIENTED_EDGE('',*,*,#381,.T.);
#281=ORIENTED_EDGE('',*,*,#386,.T.);
#282=ORIENTED_EDGE('',*,*,#394,.T.);
#283=ORIENTED_EDGE('',*,*,#403,.T.);
#284=ORIENTED_EDGE('',*,*,#404,.T.);
#285=ORIENTED_EDGE('',*,*,#372,.T.);
#286=ORIENTED_EDGE('',*,*,#368,.T.);
#287=ORIENTED_EDGE('',*,*,#378,.T.);
#288=CARTESIAN_POINT('',(-4.56692913385827,-0.787401574803149,0.0));
#289=DIRECTION('',(0.0,0.0,1.0));
#290=DIRECTION('',(1.0,0.0,0.0));
#291=SURFACE_STYLE_FILL_AREA(#405);
#292=ORIENTED_EDGE('',*,*,#406,.F.);
#293=ORIENTED_EDGE('',*,*,#407,.F.);
#294=ORIENTED_EDGE('',*,*,#408,.F.);
#295=ORIENTED_EDGE('',*,*,#401,.F.);
#296=CARTESIAN_POINT('',(-2.67716535433071,-0.78740157480315,0.0));
#297=DIRECTION('',(-0.0,-0.0,-1.0));
#298=DIRECTION('',(-1.0,0.0,0.0));
#299=SURFACE_STYLE_FILL_AREA(#409);
#300=ORIENTED_EDGE('',*,*,#410,.F.);
#301=ORIENTED_EDGE('',*,*,#411,.F.);
#302=ORIENTED_EDGE('',*,*,#412,.F.);
#303=ORIENTED_EDGE('',*,*,#399,.F.);
#304=CARTESIAN_POINT('',(-0.78740157480315,-0.78740157480315,0.0));
#305=DIRECTION('',(-0.0,-0.0,-1.0));
#306=DIRECTION('',(-1.0,0.0,0.0));
#307=SURFACE_STYLE_FILL_AREA(#413);
#308=ORIENTED_EDGE('',*,*,#388,.T.);
#309=ORIENTED_EDGE('',*,*,#402,.F.);
#310=ORIENTED_EDGE('',*,*,#390,.T.);
#311=ORIENTED_EDGE('',*,*,#414,.F.);
#312=CARTESIAN_POINT('',(-4.56692913385827,-0.78740157480315,0.0));
#313=DIRECTION('',(-0.0,-0.0,-1.0));
#314=DIRECTION('',(-1.0,0.0,0.0));
#315=SURFACE_STYLE_FILL_AREA(#415);
#316=ORIENTED_EDGE('',*,*,#410,.T.);
#317=ORIENTED_EDGE('',*,*,#398,.F.);
#318=ORIENTED_EDGE('',*,*,#412,.T.);
#319=ORIENTED_EDGE('',*,*,#416,.F.);
#320=CARTESIAN_POINT('',(-0.78740157480315,-0.78740157480315,0.0));
#321=DIRECTION('',(-0.0,-0.0,-1.0));
#322=DIRECTION('',(-1.0,0.0,0.0));
#323=SURFACE_STYLE_FILL_AREA(#417);
#324=ORIENTED_EDGE('',*,*,#418,.T.);
#325=ORIENTED_EDGE('',*,*,#373,.F.);
#326=ORIENTED_EDGE('',*,*,#404,.F.);
#327=ORIENTED_EDGE('',*,*,#377,.T.);
#328=CARTESIAN_POINT('',(-9.13385826771654,0.0,0.0));
#329=DIRECTION('',(0.0,1.0,0.0));
#330=DIRECTION('',(0.0,0.0,1.0));
#331=SURFACE_STYLE_FILL_AREA(#419);
#332=ORIENTED_EDGE('',*,*,#406,.T.);
#333=ORIENTED_EDGE('',*,*,#400,.F.);
#334=ORIENTED_EDGE('',*,*,#408,.T.);
#335=ORIENTED_EDGE('',*,*,#420,.F.);
#336=CARTESIAN_POINT('',(-2.67716535433071,-0.78740157480315,0.0));
#337=DIRECTION('',(-0.0,-0.0,-1.0));
#338=DIRECTION('',(-1.0,0.0,0.0));
#339=SURFACE_STYLE_FILL_AREA(#421);
#340=ORIENTED_EDGE('',*,*,#393,.F.);
#341=ORIENTED_EDGE('',*,*,#422,.F.);
#342=ORIENTED_EDGE('',*,*,#395,.F.);
#343=ORIENTED_EDGE('',*,*,#403,.F.);
#344=CARTESIAN_POINT('',(-8.34645669291339,-0.787401574803149,0.0));
#345=DIRECTION('',(-0.0,-0.0,-1.0));
#346=DIRECTION('',(-1.0,0.0,0.0));
#347=SURFACE_STYLE_FILL_AREA(#423);
#348=ORIENTED_EDGE('',*,*,#411,.T.);
#349=ORIENTED_EDGE('',*,*,#416,.T.);
#350=ORIENTED_EDGE('',*,*,#407,.T.);
#351=ORIENTED_EDGE('',*,*,#420,.T.);
#352=ORIENTED_EDGE('',*,*,#389,.T.);
#353=ORIENTED_EDGE('',*,*,#414,.T.);
#354=ORIENTED_EDGE('',*,*,#385,.T.);
#355=ORIENTED_EDGE('',*,*,#383,.T.);
#356=ORIENTED_EDGE('',*,*,#422,.T.);
#357=ORIENTED_EDGE('',*,*,#396,.T.);
#358=ORIENTED_EDGE('',*,*,#371,.F.);
#359=ORIENTED_EDGE('',*,*,#418,.F.);
#360=ORIENTED_EDGE('',*,*,#376,.F.);
#361=ORIENTED_EDGE('',*,*,#366,.F.);
#362=CARTESIAN_POINT('',(-4.56692913385827,-0.787401574803149,0.236220472440945));
#363=DIRECTION('',(0.0,0.0,1.0));
#364=DIRECTION('',(1.0,0.0,0.0));
#365=FILL_AREA_STYLE('',(#424));
#366=EDGE_CURVE('',#425,#426,#427,.T.);
#367=EDGE_CURVE('',#428,#426,#429,.T.);
#368=EDGE_CURVE('',#430,#428,#431,.T.);
#369=EDGE_CURVE('',#430,#425,#432,.T.);
#370=FILL_AREA_STYLE('',(#433));
#371=EDGE_CURVE('',#434,#425,#435,.T.);
#372=EDGE_CURVE('',#436,#430,#437,.T.);
#373=EDGE_CURVE('',#436,#434,#438,.T.);
#374=FILL_AREA_STYLE('',(#439));
#375=FILL_AREA_STYLE('',(#440));
#376=EDGE_CURVE('',#426,#441,#442,.T.);
#377=EDGE_CURVE('',#443,#441,#444,.T.);
#378=EDGE_CURVE('',#428,#443,#445,.T.);
#379=FILL_AREA_STYLE('',(#446));
#380=EDGE_CURVE('',#447,#448,#449,.T.);
#381=EDGE_CURVE('',#450,#448,#451,.T.);
#382=EDGE_CURVE('',#450,#452,#453,.T.);
#383=EDGE_CURVE('',#447,#452,#454,.T.);
#384=FILL_AREA_STYLE('',(#455));
#385=EDGE_CURVE('',#452,#447,#456,.T.);
#386=EDGE_CURVE('',#448,#450,#457,.T.);
#387=FILL_AREA_STYLE('',(#458));
#388=EDGE_CURVE('',#459,#460,#461,.T.);
#389=EDGE_CURVE('',#462,#459,#463,.T.);
#390=EDGE_CURVE('',#464,#462,#465,.T.);
#391=EDGE_CURVE('',#460,#464,#466,.T.);
#392=FILL_AREA_STYLE('',(#467));
#393=EDGE_CURVE('',#468,#469,#470,.T.);
#394=EDGE_CURVE('',#471,#469,#472,.T.);
#395=EDGE_CURVE('',#471,#473,#474,.T.);
#396=EDGE_CURVE('',#468,#473,#475,.T.);
#397=FILL_AREA_STYLE('',(#476));
#398=EDGE_CURVE('',#477,#478,#479,.T.);
#399=EDGE_CURVE('',#478,#477,#480,.T.);
#400=EDGE_CURVE('',#481,#482,#483,.T.);
#401=EDGE_CURVE('',#482,#481,#484,.T.);
#402=EDGE_CURVE('',#464,#460,#485,.T.);
#403=EDGE_CURVE('',#469,#471,#486,.T.);
#404=EDGE_CURVE('',#443,#436,#487,.T.);
#405=FILL_AREA_STYLE('',(#488));
#406=EDGE_CURVE('',#489,#482,#490,.T.);
#407=EDGE_CURVE('',#491,#489,#492,.T.);
#408=EDGE_CURVE('',#481,#491,#493,.T.);
#409=FILL_AREA_STYLE('',(#494));
#410=EDGE_CURVE('',#495,#478,#496,.T.);
#411=EDGE_CURVE('',#497,#495,#498,.T.);
#412=EDGE_CURVE('',#477,#497,#499,.T.);
#413=FILL_AREA_STYLE('',(#500));
#414=EDGE_CURVE('',#459,#462,#501,.T.);
#415=FILL_AREA_STYLE('',(#502));
#416=EDGE_CURVE('',#495,#497,#503,.T.);
#417=FILL_AREA_STYLE('',(#504));
#418=EDGE_CURVE('',#441,#434,#505,.T.);
#419=FILL_AREA_STYLE('',(#506));
#420=EDGE_CURVE('',#489,#491,#507,.T.);
#421=FILL_AREA_STYLE('',(#508));
#422=EDGE_CURVE('',#473,#468,#509,.T.);
#423=FILL_AREA_STYLE('',(#510));
#424=FILL_AREA_STYLE_COLOUR('',#511);
#425=VERTEX_POINT('',#512);
#426=VERTEX_POINT('',#513);
#427=LINE('',#514,#515);
#428=VERTEX_POINT('',#516);
#429=LINE('',#517,#518);
#430=VERTEX_POINT('',#519);
#431=LINE('',#520,#521);
#432=LINE('',#522,#523);
#433=FILL_AREA_STYLE_COLOUR('',#524);
#434=VERTEX_POINT('',#525);
#435=LINE('',#526,#527);
#436=VERTEX_POINT('',#528);
#437=LINE('',#529,#530);
#438=LINE('',#531,#532);
#439=FILL_AREA_STYLE_COLOUR('',#533);
#440=FILL_AREA_STYLE_COLOUR('',#534);
#441=VERTEX_POINT('',#535);
#442=LINE('',#536,#537);
#443=VERTEX_POINT('',#538);
#444=LINE('',#539,#540);
#445=LINE('',#541,#542);
#446=FILL_AREA_STYLE_COLOUR('',#543);
#447=VERTEX_POINT('',#544);
#448=VERTEX_POINT('',#545);
#449=LINE('',#546,#547);
#450=VERTEX_POINT('',#548);
#451=CIRCLE('',#549,0.275590551181102);
#452=VERTEX_POINT('',#550);
#453=LINE('',#551,#552);
#454=CIRCLE('',#553,0.275590551181102);
#455=FILL_AREA_STYLE_COLOUR('',#554);
#456=CIRCLE('',#555,0.275590551181102);
#457=CIRCLE('',#556,0.275590551181102);
#458=FILL_AREA_STYLE_COLOUR('',#557);
#459=VERTEX_POINT('',#558);
#460=VERTEX_POINT('',#559);
#461=LINE('',#560,#561);
#462=VERTEX_POINT('',#562);
#463=CIRCLE('',#563,0.275590551181102);
#464=VERTEX_POINT('',#564);
#465=LINE('',#565,#566);
#466=CIRCLE('',#567,0.275590551181102);
#467=FILL_AREA_STYLE_COLOUR('',#568);
#468=VERTEX_POINT('',#569);
#469=VERTEX_POINT('',#570);
#470=LINE('',#571,#572);
#471=VERTEX_POINT('',#573);
#472=CIRCLE('',#574,0.275590551181102);
#473=VERTEX_POINT('',#575);
#474=LINE('',#576,#577);
#475=CIRCLE('',#578,0.275590551181102);
#476=FILL_AREA_STYLE_COLOUR('',#579);
#477=VERTEX_POINT('',#580);
#478=VERTEX_POINT('',#581);
#479=CIRCLE('',#582,0.275590551181102);
#480=CIRCLE('',#583,0.275590551181102);
#481=VERTEX_POINT('',#584);
#482=VERTEX_POINT('',#585);
#483=CIRCLE('',#586,0.275590551181102);
#484=CIRCLE('',#587,0.275590551181102);
#485=CIRCLE('',#588,0.275590551181102);
#486=CIRCLE('',#589,0.275590551181102);
#487=LINE('',#590,#591);
#488=FILL_AREA_STYLE_COLOUR('',#592);
#489=VERTEX_POINT('',#593);
#490=LINE('',#594,#595);
#491=VERTEX_POINT('',#596);
#492=CIRCLE('',#597,0.275590551181102);
#493=LINE('',#598,#599);
#494=FILL_AREA_STYLE_COLOUR('',#600);
#495=VERTEX_POINT('',#601);
#496=LINE('',#602,#603);
#497=VERTEX_POINT('',#604);
#498=CIRCLE('',#605,0.275590551181102);
#499=LINE('',#606,#607);
#500=FILL_AREA_STYLE_COLOUR('',#608);
#501=CIRCLE('',#609,0.275590551181102);
#502=FILL_AREA_STYLE_COLOUR('',#610);
#503=CIRCLE('',#611,0.275590551181102);
#504=FILL_AREA_STYLE_COLOUR('',#612);
#505=LINE('',#613,#614);
#506=FILL_AREA_STYLE_COLOUR('',#615);
#507=CIRCLE('',#616,0.275590551181102);
#508=FILL_AREA_STYLE_COLOUR('',#617);
#509=CIRCLE('',#618,0.275590551181102);
#510=FILL_AREA_STYLE_COLOUR('',#619);
#511=COLOUR_RGB('',0.0,1.0,0.0);
#512=CARTESIAN_POINT('',(0.0,-1.5748031496063,0.236220472440945));
#513=CARTESIAN_POINT('',(-9.13385826771654,-1.5748031496063,0.236220472440945));
#514=CARTESIAN_POINT('',(0.0,-1.5748031496063,0.236220472440945));
#515=VECTOR('',#620,0.393700787401575);
#516=CARTESIAN_POINT('',(-9.13385826771654,-1.5748031496063,0.0));
#517=CARTESIAN_POINT('',(-9.13385826771654,-1.5748031496063,0.0));
#518=VECTOR('',#621,0.393700787401575);
#519=CARTESIAN_POINT('',(0.0,-1.5748031496063,0.0));
#520=CARTESIAN_POINT('',(0.0,-1.5748031496063,0.0));
#521=VECTOR('',#622,0.393700787401575);
#522=CARTESIAN_POINT('',(0.0,-1.5748031496063,0.0));
#523=VECTOR('',#623,0.393700787401575);
#524=COLOUR_RGB('',0.0,1.0,0.0);
#525=CARTESIAN_POINT('',(0.0,0.0,0.236220472440945));
#526=CARTESIAN_POINT('',(0.0,0.0,0.236220472440945));
#527=VECTOR('',#624,0.393700787401575);
#528=CARTESIAN_POINT('',(0.0,0.0,0.0));
#529=CARTESIAN_POINT('',(0.0,0.0,0.0));
#530=VECTOR('',#625,0.393700787401575);
#531=CARTESIAN_POINT('',(0.0,0.0,0.0));
#532=VECTOR('',#626,0.393700787401575);
#533=COLOUR_RGB('',0.0,1.0,0.0);
#534=COLOUR_RGB('',0.0,1.0,0.0);
#535=CARTESIAN_POINT('',(-9.13385826771654,0.0,0.236220472440945));
#536=CARTESIAN_POINT('',(-9.13385826771654,-1.5748031496063,0.236220472440945));
#537=VECTOR('',#627,0.393700787401575);
#538=CARTESIAN_POINT('',(-9.13385826771654,0.0,0.0));
#539=CARTESIAN_POINT('',(-9.13385826771654,0.0,0.0));
#540=VECTOR('',#628,0.393700787401575);
#541=CARTESIAN_POINT('',(-9.13385826771654,-1.5748031496063,0.0));
#542=VECTOR('',#629,0.393700787401575);
#543=COLOUR_RGB('',0.0,1.0,0.0);
#544=CARTESIAN_POINT('',(-6.73228346456693,-0.78740157480315,0.236220472440945));
#545=CARTESIAN_POINT('',(-6.73228346456693,-0.78740157480315,0.0));
#546=CARTESIAN_POINT('',(-6.73228346456693,-0.78740157480315,0.0));
#547=VECTOR('',#630,1.0);
#548=CARTESIAN_POINT('',(-6.18110236220473,-0.78740157480315,0.0));
#549=AXIS2_PLACEMENT_3D('',#631,#632,#633);
#550=CARTESIAN_POINT('',(-6.18110236220473,-0.78740157480315,0.236220472440945));
#551=CARTESIAN_POINT('',(-6.18110236220473,-0.78740157480315,0.0));
#552=VECTOR('',#634,1.0);
#553=AXIS2_PLACEMENT_3D('',#635,#636,#637);
#554=COLOUR_RGB('',0.0,1.0,0.0);
#555=AXIS2_PLACEMENT_3D('',#638,#639,#640);
#556=AXIS2_PLACEMENT_3D('',#641,#642,#643);
#557=COLOUR_RGB('',0.0,1.0,0.0);
#558=CARTESIAN_POINT('',(-4.84251968503937,-0.78740157480315,0.236220472440945));
#559=CARTESIAN_POINT('',(-4.84251968503937,-0.78740157480315,0.0));
#560=CARTESIAN_POINT('',(-4.84251968503937,-0.78740157480315,0.0));
#561=VECTOR('',#644,1.0);
#562=CARTESIAN_POINT('',(-4.29133858267717,-0.78740157480315,0.236220472440945));
#563=AXIS2_PLACEMENT_3D('',#645,#646,#647);
#564=CARTESIAN_POINT('',(-4.29133858267717,-0.78740157480315,0.0));
#565=CARTESIAN_POINT('',(-4.29133858267717,-0.78740157480315,0.0));
#566=VECTOR('',#648,1.0);
#567=AXIS2_PLACEMENT_3D('',#649,#650,#651);
#568=COLOUR_RGB('',0.0,1.0,0.0);
#569=CARTESIAN_POINT('',(-8.62204724409449,-0.787401574803149,0.236220472440945));
#570=CARTESIAN_POINT('',(-8.62204724409449,-0.787401574803149,0.0));
#571=CARTESIAN_POINT('',(-8.62204724409449,-0.787401574803149,0.0));
#572=VECTOR('',#652,1.0);
#573=CARTESIAN_POINT('',(-8.07086614173229,-0.787401574803149,0.0));
#574=AXIS2_PLACEMENT_3D('',#653,#654,#655);
#575=CARTESIAN_POINT('',(-8.07086614173229,-0.787401574803149,0.236220472440945));
#576=CARTESIAN_POINT('',(-8.07086614173229,-0.787401574803149,0.0));
#577=VECTOR('',#656,1.0);
#578=AXIS2_PLACEMENT_3D('',#657,#658,#659);
#579=COLOUR_RGB('',0.0,1.0,0.0);
#580=CARTESIAN_POINT('',(-0.511811023622047,-0.78740157480315,0.0));
#581=CARTESIAN_POINT('',(-1.06299212598425,-0.78740157480315,0.0));
#582=AXIS2_PLACEMENT_3D('',#660,#661,#662);
#583=AXIS2_PLACEMENT_3D('',#663,#664,#665);
#584=CARTESIAN_POINT('',(-2.40157480314961,-0.78740157480315,0.0));
#585=CARTESIAN_POINT('',(-2.95275590551181,-0.78740157480315,0.0));
#586=AXIS2_PLACEMENT_3D('',#666,#667,#668);
#587=AXIS2_PLACEMENT_3D('',#669,#670,#671);
#588=AXIS2_PLACEMENT_3D('',#672,#673,#674);
#589=AXIS2_PLACEMENT_3D('',#675,#676,#677);
#590=CARTESIAN_POINT('',(-9.13385826771654,0.0,0.0));
#591=VECTOR('',#678,0.393700787401575);
#592=COLOUR_RGB('',0.0,1.0,0.0);
#593=CARTESIAN_POINT('',(-2.95275590551181,-0.78740157480315,0.236220472440945));
#594=CARTESIAN_POINT('',(-2.95275590551181,-0.78740157480315,0.0));
#595=VECTOR('',#679,1.0);
#596=CARTESIAN_POINT('',(-2.40157480314961,-0.78740157480315,0.236220472440945));
#597=AXIS2_PLACEMENT_3D('',#680,#681,#682);
#598=CARTESIAN_POINT('',(-2.40157480314961,-0.78740157480315,0.0));
#599=VECTOR('',#683,1.0);
#600=COLOUR_RGB('',0.0,1.0,0.0);
#601=CARTESIAN_POINT('',(-1.06299212598425,-0.78740157480315,0.236220472440945));
#602=CARTESIAN_POINT('',(-1.06299212598425,-0.78740157480315,0.0));
#603=VECTOR('',#684,1.0);
#604=CARTESIAN_POINT('',(-0.511811023622047,-0.78740157480315,0.236220472440945));
#605=AXIS2_PLACEMENT_3D('',#685,#686,#687);
#606=CARTESIAN_POINT('',(-0.511811023622047,-0.78740157480315,0.0));
#607=VECTOR('',#688,1.0);
#608=COLOUR_RGB('',0.0,1.0,0.0);
#609=AXIS2_PLACEMENT_3D('',#689,#690,#691);
#610=COLOUR_RGB('',0.0,1.0,0.0);
#611=AXIS2_PLACEMENT_3D('',#692,#693,#694);
#612=COLOUR_RGB('',0.0,1.0,0.0);
#613=CARTESIAN_POINT('',(-9.13385826771654,0.0,0.236220472440945));
#614=VECTOR('',#695,0.393700787401575);
#615=COLOUR_RGB('',0.0,1.0,0.0);
#616=AXIS2_PLACEMENT_3D('',#696,#697,#698);
#617=COLOUR_RGB('',0.0,1.0,0.0);
#618=AXIS2_PLACEMENT_3D('',#699,#700,#701);
#619=COLOUR_RGB('',0.0,1.0,0.0);
#620=DIRECTION('',(-1.0,-9.57088814332031E-17,0.0));
#621=DIRECTION('',(0.0,0.0,1.0));
#622=DIRECTION('',(-1.0,-9.57088814332031E-17,0.0));
#623=DIRECTION('',(0.0,0.0,1.0));
#624=DIRECTION('',(0.0,-1.0,0.0));
#625=DIRECTION('',(0.0,-1.0,0.0));
#626=DIRECTION('',(0.0,0.0,1.0));
#627=DIRECTION('',(0.0,1.0,0.0));
#628=DIRECTION('',(0.0,0.0,1.0));
#629=DIRECTION('',(0.0,1.0,0.0));
#630=DIRECTION('',(0.0,-0.0,-1.0));
#631=CARTESIAN_POINT('',(-6.45669291338583,-0.78740157480315,0.0));
#632=DIRECTION('',(0.0,0.0,1.0));
#633=DIRECTION('',(-1.0,0.0,0.0));
#634=DIRECTION('',(0.0,0.0,1.0));
#635=CARTESIAN_POINT('',(-6.45669291338583,-0.78740157480315,0.236220472440945));
#636=DIRECTION('',(0.0,0.0,-1.0));
#637=DIRECTION('',(-1.0,0.0,0.0));
#638=CARTESIAN_POINT('',(-6.45669291338583,-0.78740157480315,0.236220472440945));
#639=DIRECTION('',(0.0,0.0,-1.0));
#640=DIRECTION('',(-1.0,0.0,0.0));
#641=CARTESIAN_POINT('',(-6.45669291338583,-0.78740157480315,0.0));
#642=DIRECTION('',(0.0,0.0,1.0));
#643=DIRECTION('',(-1.0,0.0,0.0));
#644=DIRECTION('',(0.0,-0.0,-1.0));
#645=CARTESIAN_POINT('',(-4.56692913385827,-0.78740157480315,0.236220472440945));
#646=DIRECTION('',(0.0,0.0,-1.0));
#647=DIRECTION('',(-1.0,0.0,0.0));
#648=DIRECTION('',(0.0,0.0,1.0));
#649=CARTESIAN_POINT('',(-4.56692913385827,-0.78740157480315,0.0));
#650=DIRECTION('',(0.0,0.0,1.0));
#651=DIRECTION('',(-1.0,0.0,0.0));
#652=DIRECTION('',(0.0,-0.0,-1.0));
#653=CARTESIAN_POINT('',(-8.34645669291339,-0.787401574803149,0.0));
#654=DIRECTION('',(0.0,0.0,1.0));
#655=DIRECTION('',(-1.0,0.0,0.0));
#656=DIRECTION('',(0.0,0.0,1.0));
#657=CARTESIAN_POINT('',(-8.34645669291339,-0.787401574803149,0.236220472440945));
#658=DIRECTION('',(0.0,0.0,-1.0));
#659=DIRECTION('',(-1.0,0.0,0.0));
#660=CARTESIAN_POINT('',(-0.78740157480315,-0.78740157480315,0.0));
#661=DIRECTION('',(0.0,0.0,1.0));
#662=DIRECTION('',(-1.0,0.0,0.0));
#663=CARTESIAN_POINT('',(-0.78740157480315,-0.78740157480315,0.0));
#664=DIRECTION('',(0.0,0.0,1.0));
#665=DIRECTION('',(-1.0,0.0,0.0));
#666=CARTESIAN_POINT('',(-2.67716535433071,-0.78740157480315,0.0));
#667=DIRECTION('',(0.0,0.0,1.0));
#668=DIRECTION('',(-1.0,0.0,0.0));
#669=CARTESIAN_POINT('',(-2.67716535433071,-0.78740157480315,0.0));
#670=DIRECTION('',(0.0,0.0,1.0));
#671=DIRECTION('',(-1.0,0.0,0.0));
#672=CARTESIAN_POINT('',(-4.56692913385827,-0.78740157480315,0.0));
#673=DIRECTION('',(0.0,0.0,1.0));
#674=DIRECTION('',(-1.0,0.0,0.0));
#675=CARTESIAN_POINT('',(-8.34645669291339,-0.787401574803149,0.0));
#676=DIRECTION('',(0.0,0.0,1.0));
#677=DIRECTION('',(-1.0,0.0,0.0));
#678=DIRECTION('',(1.0,0.0,0.0));
#679=DIRECTION('',(0.0,-0.0,-1.0));
#680=CARTESIAN_POINT('',(-2.67716535433071,-0.78740157480315,0.236220472440945));
#681=DIRECTION('',(0.0,0.0,-1.0));
#682=DIRECTION('',(-1.0,0.0,0.0));
#683=DIRECTION('',(0.0,0.0,1.0));
#684=DIRECTION('',(0.0,-0.0,-1.0));
#685=CARTESIAN_POINT('',(-0.78740157480315,-0.78740157480315,0.236220472440945));
#686=DIRECTION('',(0.0,0.0,-1.0));
#687=DIRECTION('',(-1.0,0.0,0.0));
#688=DIRECTION('',(0.0,0.0,1.0));
#689=CARTESIAN_POINT('',(-4.56692913385827,-0.78740157480315,0.236220472440945));
#690=DIRECTION('',(0.0,0.0,-1.0));
#691=DIRECTION('',(-1.0,0.0,0.0));
#692=CARTESIAN_POINT('',(-0.78740157480315,-0.78740157480315,0.236220472440945));
#693=DIRECTION('',(0.0,0.0,-1.0));
#694=DIRECTION('',(-1.0,0.0,0.0));
#695=DIRECTION('',(1.0,0.0,0.0));
#696=CARTESIAN_POINT('',(-2.67716535433071,-0.78740157480315,0.236220472440945));
#697=DIRECTION('',(0.0,0.0,-1.0));
#698=DIRECTION('',(-1.0,0.0,0.0));
#699=CARTESIAN_POINT('',(-8.34645669291339,-0.787401574803149,0.236220472440945));
#700=DIRECTION('',(0.0,0.0,-1.0));
#701=DIRECTION('',(-1.0,0.0,0.0));
ENDSEC;
END-ISO-10303-21;
