ISO-10303-21;
HEADER;
FILE_DESCRIPTION(('TurboCAD Mac Pro'),'Build 980');
FILE_NAME('P1924.stp','  ',(''),(''),'ACIS Interop','IMSI','TurboCAD Mac Pro BY IMSI, INCORPORATED');
FILE_SCHEMA(('automotive_design'));
ENDSEC;
DATA;
#1=MECHANICAL_DESIGN_GEOMETRIC_PRESENTATION_REPRESENTATION(' ',(#14,#15,#16,#17,#18,#19,#20,#21,#22,#23,#24,#25,#26),#10);
#2=PRODUCT_DEFINITION_CONTEXT('',#27,'design');
#3=APPLICATION_PROTOCOL_DEFINITION('INTERNATIONAL STANDARD','automotive_design',1994,#27);
#4=PRODUCT_CATEGORY_RELATIONSHIP('NONE','NONE',#28,#29);
#5=SHAPE_DEFINITION_REPRESENTATION(#30,#31);
#6=PRODUCT_DEFINITION_CONTEXT('',#32,'design');
#7=APPLICATION_PROTOCOL_DEFINITION('INTERNATIONAL STANDARD','automotive_design',1994,#32);
#8=PRODUCT_CATEGORY_RELATIONSHIP('NONE','NONE',#33,#34);
#9=SHAPE_DEFINITION_REPRESENTATION(#35,#36);
#10= (GEOMETRIC_REPRESENTATION_CONTEXT(3)GLOBAL_UNCERTAINTY_ASSIGNED_CONTEXT((#39))GLOBAL_UNIT_ASSIGNED_CONTEXT((#41,#42,#43))REPRESENTATION_CONTEXT('NONE','WORKSPACE'));
#14=STYLED_ITEM('',(#45),#46);
#15=STYLED_ITEM('',(#47),#48);
#16=STYLED_ITEM('',(#49),#50);
#17=STYLED_ITEM('',(#51),#52);
#18=STYLED_ITEM('',(#53),#54);
#19=STYLED_ITEM('',(#55),#56);
#20=STYLED_ITEM('',(#57),#58);
#21=STYLED_ITEM('',(#59),#60);
#22=STYLED_ITEM('',(#61),#62);
#23=STYLED_ITEM('',(#63),#64);
#24=STYLED_ITEM('',(#65),#66);
#25=STYLED_ITEM('',(#67),#68);
#26=STYLED_ITEM('',(#69),#70);
#27=APPLICATION_CONTEXT(' ');
#28=PRODUCT_CATEGORY('part','NONE');
#29=PRODUCT_RELATED_PRODUCT_CATEGORY('detail',' ',(#71));
#30=PRODUCT_DEFINITION_SHAPE('NONE','NONE',#72);
#31=ADVANCED_BREP_SHAPE_REPRESENTATION('1',(#46,#73),#10);
#32=APPLICATION_CONTEXT(' ');
#33=PRODUCT_CATEGORY('part','NONE');
#34=PRODUCT_RELATED_PRODUCT_CATEGORY('detail',' ',(#74));
#35=PRODUCT_DEFINITION_SHAPE('NONE','NONE',#75);
#36=GEOMETRICALLY_BOUNDED_SURFACE_SHAPE_REPRESENTATION('2',(#76,#77),#10);
#39=UNCERTAINTY_MEASURE_WITH_UNIT(LENGTH_MEASURE(1.0E-06),#41,'','');
#41= (CONVERSION_BASED_UNIT('INCH',#80)LENGTH_UNIT()NAMED_UNIT(#83));
#42= (NAMED_UNIT(#85)PLANE_ANGLE_UNIT()SI_UNIT($,.RADIAN.));
#43= (NAMED_UNIT(#85)SOLID_ANGLE_UNIT()SI_UNIT($,.STERADIAN.));
#45=PRESENTATION_STYLE_ASSIGNMENT((#91));
#46=MANIFOLD_SOLID_BREP('1',#92);
#47=PRESENTATION_STYLE_ASSIGNMENT((#93));
#48=ADVANCED_FACE('',(#94),#95,.F.);
#49=PRESENTATION_STYLE_ASSIGNMENT((#96));
#50=ADVANCED_FACE('',(#97),#98,.F.);
#51=PRESENTATION_STYLE_ASSIGNMENT((#99));
#52=ADVANCED_FACE('',(#100),#101,.F.);
#53=PRESENTATION_STYLE_ASSIGNMENT((#102));
#54=ADVANCED_FACE('',(#103),#104,.T.);
#55=PRESENTATION_STYLE_ASSIGNMENT((#105));
#56=ADVANCED_FACE('',(#106),#107,.T.);
#57=PRESENTATION_STYLE_ASSIGNMENT((#108));
#58=ADVANCED_FACE('',(#109,#110,#111),#112,.F.);
#59=PRESENTATION_STYLE_ASSIGNMENT((#113));
#60=ADVANCED_FACE('',(#114),#115,.T.);
#61=PRESENTATION_STYLE_ASSIGNMENT((#116));
#62=ADVANCED_FACE('',(#117),#118,.F.);
#63=PRESENTATION_STYLE_ASSIGNMENT((#119));
#64=ADVANCED_FACE('',(#120),#121,.T.);
#65=PRESENTATION_STYLE_ASSIGNMENT((#122));
#66=TRIMMED_CURVE('',#123,(PARAMETER_VALUE(0.0)),(PARAMETER_VALUE(6.28318530717959)),.T.,.UNSPECIFIED.);
#67=PRESENTATION_STYLE_ASSIGNMENT((#124));
#68=ADVANCED_FACE('',(#125,#126,#127),#128,.T.);
#69=PRESENTATION_STYLE_ASSIGNMENT((#129));
#70=TRIMMED_CURVE('',#130,(PARAMETER_VALUE(0.0)),(PARAMETER_VALUE(6.28318530717959)),.T.,.UNSPECIFIED.);
#71=PRODUCT('1','1','PART-1-DESC',(#131));
#72=PRODUCT_DEFINITION('NONE','NONE',#132,#2);
#73=AXIS2_PLACEMENT_3D('',#133,#134,#135);
#74=PRODUCT('2','2','PART-2-DESC',(#136));
#75=PRODUCT_DEFINITION('NONE','NONE',#137,#6);
#76=GEOMETRIC_SET('2',(#138,#139));
#77=AXIS2_PLACEMENT_3D('',#140,#141,#142);
#80=LENGTH_MEASURE_WITH_UNIT(LENGTH_MEASURE(25.4),#143);
#83=DIMENSIONAL_EXPONENTS(1.0,0.0,0.0,0.0,0.0,0.0,0.0);
#85=DIMENSIONAL_EXPONENTS(0.0,0.0,0.0,0.0,0.0,0.0,0.0);
#91=SURFACE_STYLE_USAGE(.BOTH.,#144);
#92=CLOSED_SHELL('',(#50,#52,#56,#64,#54,#60,#62,#48,#68,#58));
#93=SURFACE_STYLE_USAGE(.BOTH.,#145);
#94=FACE_OUTER_BOUND('',#146,.T.);
#95=CYLINDRICAL_SURFACE('',#147,0.28125);
#96=SURFACE_STYLE_USAGE(.BOTH.,#148);
#97=FACE_OUTER_BOUND('',#149,.T.);
#98=CYLINDRICAL_SURFACE('',#150,0.28125);
#99=SURFACE_STYLE_USAGE(.BOTH.,#151);
#100=FACE_OUTER_BOUND('',#152,.T.);
#101=CYLINDRICAL_SURFACE('',#153,0.28125);
#102=SURFACE_STYLE_USAGE(.BOTH.,#154);
#103=FACE_OUTER_BOUND('',#155,.T.);
#104=PLANE('',#156);
#105=SURFACE_STYLE_USAGE(.BOTH.,#157);
#106=FACE_OUTER_BOUND('',#158,.T.);
#107=PLANE('',#159);
#108=SURFACE_STYLE_USAGE(.BOTH.,#160);
#109=FACE_BOUND('',#161,.T.);
#110=FACE_BOUND('',#162,.T.);
#111=FACE_OUTER_BOUND('',#163,.T.);
#112=PLANE('',#164);
#113=SURFACE_STYLE_USAGE(.BOTH.,#165);
#114=FACE_OUTER_BOUND('',#166,.T.);
#115=PLANE('',#167);
#116=SURFACE_STYLE_USAGE(.BOTH.,#168);
#117=FACE_OUTER_BOUND('',#169,.T.);
#118=CYLINDRICAL_SURFACE('',#170,0.28125);
#119=SURFACE_STYLE_USAGE(.BOTH.,#171);
#120=FACE_OUTER_BOUND('',#172,.T.);
#121=PLANE('',#173);
#122=CURVE_STYLE('',#174,POSITIVE_LENGTH_MEASURE(1.0E-06),#175);
#123=CIRCLE('',#176,0.28125);
#124=SURFACE_STYLE_USAGE(.BOTH.,#177);
#125=FACE_BOUND('',#178,.T.);
#126=FACE_BOUND('',#179,.T.);
#127=FACE_OUTER_BOUND('',#180,.T.);
#128=PLANE('',#181);
#129=CURVE_STYLE('',#182,POSITIVE_LENGTH_MEASURE(1.0E-06),#183);
#130=CIRCLE('',#184,0.28125);
#131=PRODUCT_CONTEXT('',#27,'mechanical');
#132=PRODUCT_DEFINITION_FORMATION_WITH_SPECIFIED_SOURCE(' ','NONE',#71,.NOT_KNOWN.);
#133=CARTESIAN_POINT('',(0.0,0.0,0.0));
#134=DIRECTION('',(0.0,0.0,1.0));
#135=DIRECTION('',(1.0,0.0,0.0));
#136=PRODUCT_CONTEXT('',#32,'mechanical');
#137=PRODUCT_DEFINITION_FORMATION_WITH_SPECIFIED_SOURCE(' ','NONE',#74,.NOT_KNOWN.);
#138=COMPOSITE_CURVE('',(#185),.U.);
#139=COMPOSITE_CURVE('',(#186),.U.);
#140=CARTESIAN_POINT('',(0.0,0.0,0.0));
#141=DIRECTION('',(0.0,0.0,1.0));
#142=DIRECTION('',(1.0,0.0,0.0));
#143= (NAMED_UNIT(#83)LENGTH_UNIT()SI_UNIT(.MILLI.,.METRE.));
#144=SURFACE_SIDE_STYLE('',(#188));
#145=SURFACE_SIDE_STYLE('',(#189));
#146=EDGE_LOOP('',(#190,#191,#192,#193));
#147=AXIS2_PLACEMENT_3D('',#194,#195,#196);
#148=SURFACE_SIDE_STYLE('',(#197));
#149=EDGE_LOOP('',(#198,#199,#200,#201));
#150=AXIS2_PLACEMENT_3D('',#202,#203,#204);
#151=SURFACE_SIDE_STYLE('',(#205));
#152=EDGE_LOOP('',(#206,#207,#208,#209));
#153=AXIS2_PLACEMENT_3D('',#210,#211,#212);
#154=SURFACE_SIDE_STYLE('',(#213));
#155=EDGE_LOOP('',(#214,#215,#216,#217));
#156=AXIS2_PLACEMENT_3D('',#218,#219,#220);
#157=SURFACE_SIDE_STYLE('',(#221));
#158=EDGE_LOOP('',(#222,#223,#224,#225));
#159=AXIS2_PLACEMENT_3D('',#226,#227,#228);
#160=SURFACE_SIDE_STYLE('',(#229));
#161=EDGE_LOOP('',(#230,#231));
#162=EDGE_LOOP('',(#232,#233));
#163=EDGE_LOOP('',(#234,#235,#236,#237));
#164=AXIS2_PLACEMENT_3D('',#238,#239,#240);
#165=SURFACE_SIDE_STYLE('',(#241));
#166=EDGE_LOOP('',(#242,#243,#244,#245));
#167=AXIS2_PLACEMENT_3D('',#246,#247,#248);
#168=SURFACE_SIDE_STYLE('',(#249));
#169=EDGE_LOOP('',(#250,#251,#252,#253));
#170=AXIS2_PLACEMENT_3D('',#254,#255,#256);
#171=SURFACE_SIDE_STYLE('',(#257));
#172=EDGE_LOOP('',(#258,#259,#260,#261));
#173=AXIS2_PLACEMENT_3D('',#262,#263,#264);
#174=DRAUGHTING_PRE_DEFINED_CURVE_FONT('continuous');
#175=COLOUR_RGB('',1.0,1.0,1.0);
#176=AXIS2_PLACEMENT_3D('',#265,#266,#267);
#177=SURFACE_SIDE_STYLE('',(#268));
#178=EDGE_LOOP('',(#269,#270));
#179=EDGE_LOOP('',(#271,#272));
#180=EDGE_LOOP('',(#273,#274,#275,#276));
#181=AXIS2_PLACEMENT_3D('',#277,#278,#279);
#182=DRAUGHTING_PRE_DEFINED_CURVE_FONT('continuous');
#183=COLOUR_RGB('',1.0,1.0,1.0);
#184=AXIS2_PLACEMENT_3D('',#280,#281,#282);
#185=COMPOSITE_CURVE_SEGMENT('',.CONTINUOUS.,.T.,#70);
#186=COMPOSITE_CURVE_SEGMENT('',.CONTINUOUS.,.T.,#66);
#188=SURFACE_STYLE_FILL_AREA(#283);
#189=SURFACE_STYLE_FILL_AREA(#284);
#190=ORIENTED_EDGE('',*,*,#285,.T.);
#191=ORIENTED_EDGE('',*,*,#286,.T.);
#192=ORIENTED_EDGE('',*,*,#287,.T.);
#193=ORIENTED_EDGE('',*,*,#288,.F.);
#194=CARTESIAN_POINT('',(0.8125,0.0,0.0));
#195=DIRECTION('',(-0.0,-0.0,-1.0));
#196=DIRECTION('',(1.0,0.0,0.0));
#197=SURFACE_STYLE_FILL_AREA(#289);
#198=ORIENTED_EDGE('',*,*,#285,.F.);
#199=ORIENTED_EDGE('',*,*,#290,.F.);
#200=ORIENTED_EDGE('',*,*,#287,.F.);
#201=ORIENTED_EDGE('',*,*,#291,.T.);
#202=CARTESIAN_POINT('',(0.8125,0.0,0.0));
#203=DIRECTION('',(-0.0,-0.0,-1.0));
#204=DIRECTION('',(1.0,0.0,0.0));
#205=SURFACE_STYLE_FILL_AREA(#292);
#206=ORIENTED_EDGE('',*,*,#293,.F.);
#207=ORIENTED_EDGE('',*,*,#294,.F.);
#208=ORIENTED_EDGE('',*,*,#295,.F.);
#209=ORIENTED_EDGE('',*,*,#296,.T.);
#210=CARTESIAN_POINT('',(-0.8125,0.0,0.0));
#211=DIRECTION('',(-0.0,-0.0,-1.0));
#212=DIRECTION('',(1.0,0.0,0.0));
#213=SURFACE_STYLE_FILL_AREA(#297);
#214=ORIENTED_EDGE('',*,*,#298,.T.);
#215=ORIENTED_EDGE('',*,*,#299,.F.);
#216=ORIENTED_EDGE('',*,*,#300,.T.);
#217=ORIENTED_EDGE('',*,*,#301,.T.);
#218=CARTESIAN_POINT('',(0.0,-0.8125,0.0));
#219=DIRECTION('',(0.0,-1.0,0.0));
#220=DIRECTION('',(1.0,0.0,0.0));
#221=SURFACE_STYLE_FILL_AREA(#302);
#222=ORIENTED_EDGE('',*,*,#303,.T.);
#223=ORIENTED_EDGE('',*,*,#304,.F.);
#224=ORIENTED_EDGE('',*,*,#305,.T.);
#225=ORIENTED_EDGE('',*,*,#306,.T.);
#226=CARTESIAN_POINT('',(0.0,0.8125,0.0));
#227=DIRECTION('',(0.0,1.0,-0.0));
#228=DIRECTION('',(-1.0,0.0,0.0));
#229=SURFACE_STYLE_FILL_AREA(#307);
#230=ORIENTED_EDGE('',*,*,#288,.T.);
#231=ORIENTED_EDGE('',*,*,#290,.T.);
#232=ORIENTED_EDGE('',*,*,#308,.T.);
#233=ORIENTED_EDGE('',*,*,#294,.T.);
#234=ORIENTED_EDGE('',*,*,#309,.F.);
#235=ORIENTED_EDGE('',*,*,#305,.F.);
#236=ORIENTED_EDGE('',*,*,#310,.F.);
#237=ORIENTED_EDGE('',*,*,#300,.F.);
#238=CARTESIAN_POINT('',(-1.34572487833352E-17,0.0,0.0));
#239=DIRECTION('',(0.0,0.0,1.0));
#240=DIRECTION('',(1.0,0.0,0.0));
#241=SURFACE_STYLE_FILL_AREA(#311);
#242=ORIENTED_EDGE('',*,*,#312,.T.);
#243=ORIENTED_EDGE('',*,*,#306,.F.);
#244=ORIENTED_EDGE('',*,*,#309,.T.);
#245=ORIENTED_EDGE('',*,*,#299,.T.);
#246=CARTESIAN_POINT('',(-1.625,0.0,0.0));
#247=DIRECTION('',(-1.0,0.0,0.0));
#248=DIRECTION('',(0.0,-1.0,0.0));
#249=SURFACE_STYLE_FILL_AREA(#313);
#250=ORIENTED_EDGE('',*,*,#293,.T.);
#251=ORIENTED_EDGE('',*,*,#314,.T.);
#252=ORIENTED_EDGE('',*,*,#295,.T.);
#253=ORIENTED_EDGE('',*,*,#308,.F.);
#254=CARTESIAN_POINT('',(-0.8125,0.0,0.0));
#255=DIRECTION('',(-0.0,-0.0,-1.0));
#256=DIRECTION('',(1.0,0.0,0.0));
#257=SURFACE_STYLE_FILL_AREA(#315);
#258=ORIENTED_EDGE('',*,*,#316,.T.);
#259=ORIENTED_EDGE('',*,*,#301,.F.);
#260=ORIENTED_EDGE('',*,*,#310,.T.);
#261=ORIENTED_EDGE('',*,*,#304,.T.);
#262=CARTESIAN_POINT('',(1.625,0.0,0.0));
#263=DIRECTION('',(1.0,0.0,0.0));
#264=DIRECTION('',(0.0,1.0,0.0));
#265=CARTESIAN_POINT('',(0.8125,0.0,0.0));
#266=DIRECTION('',(0.0,0.0,1.0));
#267=DIRECTION('',(1.0,-2.44929359829471E-16,0.0));
#268=SURFACE_STYLE_FILL_AREA(#317);
#269=ORIENTED_EDGE('',*,*,#286,.F.);
#270=ORIENTED_EDGE('',*,*,#291,.F.);
#271=ORIENTED_EDGE('',*,*,#314,.F.);
#272=ORIENTED_EDGE('',*,*,#296,.F.);
#273=ORIENTED_EDGE('',*,*,#303,.F.);
#274=ORIENTED_EDGE('',*,*,#312,.F.);
#275=ORIENTED_EDGE('',*,*,#298,.F.);
#276=ORIENTED_EDGE('',*,*,#316,.F.);
#277=CARTESIAN_POINT('',(-1.34572487833352E-17,0.0,0.25));
#278=DIRECTION('',(0.0,0.0,1.0));
#279=DIRECTION('',(1.0,0.0,0.0));
#280=CARTESIAN_POINT('',(-0.8125,0.0,0.0));
#281=DIRECTION('',(0.0,0.0,1.0));
#282=DIRECTION('',(1.0,-2.44929359829471E-16,0.0));
#283=FILL_AREA_STYLE('',(#318));
#284=FILL_AREA_STYLE('',(#319));
#285=EDGE_CURVE('',#320,#321,#322,.T.);
#286=EDGE_CURVE('',#321,#323,#324,.T.);
#287=EDGE_CURVE('',#323,#325,#326,.T.);
#288=EDGE_CURVE('',#320,#325,#327,.T.);
#289=FILL_AREA_STYLE('',(#328));
#290=EDGE_CURVE('',#325,#320,#329,.T.);
#291=EDGE_CURVE('',#323,#321,#330,.T.);
#292=FILL_AREA_STYLE('',(#331));
#293=EDGE_CURVE('',#332,#333,#334,.T.);
#294=EDGE_CURVE('',#335,#332,#336,.T.);
#295=EDGE_CURVE('',#337,#335,#338,.T.);
#296=EDGE_CURVE('',#337,#333,#339,.T.);
#297=FILL_AREA_STYLE('',(#340));
#298=EDGE_CURVE('',#341,#342,#343,.T.);
#299=EDGE_CURVE('',#344,#342,#345,.T.);
#300=EDGE_CURVE('',#344,#346,#347,.T.);
#301=EDGE_CURVE('',#346,#341,#348,.T.);
#302=FILL_AREA_STYLE('',(#349));
#303=EDGE_CURVE('',#350,#351,#352,.T.);
#304=EDGE_CURVE('',#353,#351,#354,.T.);
#305=EDGE_CURVE('',#353,#355,#356,.T.);
#306=EDGE_CURVE('',#355,#350,#357,.T.);
#307=FILL_AREA_STYLE('',(#358));
#308=EDGE_CURVE('',#332,#335,#359,.T.);
#309=EDGE_CURVE('',#355,#344,#360,.T.);
#310=EDGE_CURVE('',#346,#353,#361,.T.);
#311=FILL_AREA_STYLE('',(#362));
#312=EDGE_CURVE('',#342,#350,#363,.T.);
#313=FILL_AREA_STYLE('',(#364));
#314=EDGE_CURVE('',#333,#337,#365,.T.);
#315=FILL_AREA_STYLE('',(#366));
#316=EDGE_CURVE('',#351,#341,#367,.T.);
#317=FILL_AREA_STYLE('',(#368));
#318=FILL_AREA_STYLE_COLOUR('',#369);
#319=FILL_AREA_STYLE_COLOUR('',#370);
#320=VERTEX_POINT('',#371);
#321=VERTEX_POINT('',#372);
#322=LINE('',#373,#374);
#323=VERTEX_POINT('',#375);
#324=CIRCLE('',#376,0.28125);
#325=VERTEX_POINT('',#377);
#326=LINE('',#378,#379);
#327=CIRCLE('',#380,0.28125);
#328=FILL_AREA_STYLE_COLOUR('',#381);
#329=CIRCLE('',#382,0.28125);
#330=CIRCLE('',#383,0.28125);
#331=FILL_AREA_STYLE_COLOUR('',#384);
#332=VERTEX_POINT('',#385);
#333=VERTEX_POINT('',#386);
#334=LINE('',#387,#388);
#335=VERTEX_POINT('',#389);
#336=CIRCLE('',#390,0.28125);
#337=VERTEX_POINT('',#391);
#338=LINE('',#392,#393);
#339=CIRCLE('',#394,0.28125);
#340=FILL_AREA_STYLE_COLOUR('',#395);
#341=VERTEX_POINT('',#396);
#342=VERTEX_POINT('',#397);
#343=LINE('',#398,#399);
#344=VERTEX_POINT('',#400);
#345=LINE('',#401,#402);
#346=VERTEX_POINT('',#403);
#347=LINE('',#404,#405);
#348=LINE('',#406,#407);
#349=FILL_AREA_STYLE_COLOUR('',#408);
#350=VERTEX_POINT('',#409);
#351=VERTEX_POINT('',#410);
#352=LINE('',#411,#412);
#353=VERTEX_POINT('',#413);
#354=LINE('',#414,#415);
#355=VERTEX_POINT('',#416);
#356=LINE('',#417,#418);
#357=LINE('',#419,#420);
#358=FILL_AREA_STYLE_COLOUR('',#421);
#359=CIRCLE('',#422,0.28125);
#360=LINE('',#423,#424);
#361=LINE('',#425,#426);
#362=FILL_AREA_STYLE_COLOUR('',#427);
#363=LINE('',#428,#429);
#364=FILL_AREA_STYLE_COLOUR('',#430);
#365=CIRCLE('',#431,0.28125);
#366=FILL_AREA_STYLE_COLOUR('',#432);
#367=LINE('',#433,#434);
#368=FILL_AREA_STYLE_COLOUR('',#435);
#369=COLOUR_RGB('',0.156862750649452,0.549019634723663,0.941176474094391);
#370=COLOUR_RGB('',0.156862750649452,0.549019634723663,0.941176474094391);
#371=CARTESIAN_POINT('',(1.09375,0.0,0.0));
#372=CARTESIAN_POINT('',(1.09375,0.0,0.25));
#373=CARTESIAN_POINT('',(1.09375,-3.44431912260193E-17,0.0));
#374=VECTOR('',#436,1.0);
#375=CARTESIAN_POINT('',(0.53125,3.44431912260193E-17,0.25));
#376=AXIS2_PLACEMENT_3D('',#437,#438,#439);
#377=CARTESIAN_POINT('',(0.53125,3.44431912260193E-17,0.0));
#378=CARTESIAN_POINT('',(0.53125,3.44431912260193E-17,0.0));
#379=VECTOR('',#440,1.0);
#380=AXIS2_PLACEMENT_3D('',#441,#442,#443);
#381=COLOUR_RGB('',0.156862750649452,0.549019634723663,0.941176474094391);
#382=AXIS2_PLACEMENT_3D('',#444,#445,#446);
#383=AXIS2_PLACEMENT_3D('',#447,#448,#449);
#384=COLOUR_RGB('',0.156862750649452,0.549019634723663,0.941176474094391);
#385=CARTESIAN_POINT('',(-0.53125,0.0,0.0));
#386=CARTESIAN_POINT('',(-0.53125,0.0,0.25));
#387=CARTESIAN_POINT('',(-0.53125,-3.44431912260193E-17,0.0));
#388=VECTOR('',#450,1.0);
#389=CARTESIAN_POINT('',(-1.09375,3.44431912260193E-17,0.0));
#390=AXIS2_PLACEMENT_3D('',#451,#452,#453);
#391=CARTESIAN_POINT('',(-1.09375,3.44431912260193E-17,0.25));
#392=CARTESIAN_POINT('',(-1.09375,3.44431912260193E-17,0.0));
#393=VECTOR('',#454,1.0);
#394=AXIS2_PLACEMENT_3D('',#455,#456,#457);
#395=COLOUR_RGB('',0.156862750649452,0.549019634723663,0.941176474094391);
#396=CARTESIAN_POINT('',(1.625,-0.8125,0.25));
#397=CARTESIAN_POINT('',(-1.625,-0.8125,0.25));
#398=CARTESIAN_POINT('',(-1.625,-0.8125,0.25));
#399=VECTOR('',#458,1.0);
#400=CARTESIAN_POINT('',(-1.625,-0.8125,0.0));
#401=CARTESIAN_POINT('',(-1.625,-0.8125,0.0));
#402=VECTOR('',#459,1.0);
#403=CARTESIAN_POINT('',(1.625,-0.8125,0.0));
#404=CARTESIAN_POINT('',(-1.625,-0.8125,0.0));
#405=VECTOR('',#460,1.0);
#406=CARTESIAN_POINT('',(1.625,-0.8125,0.0));
#407=VECTOR('',#461,1.0);
#408=COLOUR_RGB('',0.156862750649452,0.549019634723663,0.941176474094391);
#409=CARTESIAN_POINT('',(-1.625,0.8125,0.25));
#410=CARTESIAN_POINT('',(1.625,0.8125,0.25));
#411=CARTESIAN_POINT('',(1.625,0.8125,0.25));
#412=VECTOR('',#462,1.0);
#413=CARTESIAN_POINT('',(1.625,0.8125,0.0));
#414=CARTESIAN_POINT('',(1.625,0.8125,0.0));
#415=VECTOR('',#463,1.0);
#416=CARTESIAN_POINT('',(-1.625,0.8125,0.0));
#417=CARTESIAN_POINT('',(1.625,0.8125,0.0));
#418=VECTOR('',#464,1.0);
#419=CARTESIAN_POINT('',(-1.625,0.8125,0.0));
#420=VECTOR('',#465,1.0);
#421=COLOUR_RGB('',0.156862750649452,0.549019634723663,0.941176474094391);
#422=AXIS2_PLACEMENT_3D('',#466,#467,#468);
#423=CARTESIAN_POINT('',(-1.625,0.8125,0.0));
#424=VECTOR('',#469,1.0);
#425=CARTESIAN_POINT('',(1.625,-0.8125,0.0));
#426=VECTOR('',#470,1.0);
#427=COLOUR_RGB('',0.156862750649452,0.549019634723663,0.941176474094391);
#428=CARTESIAN_POINT('',(-1.625,0.8125,0.25));
#429=VECTOR('',#471,1.0);
#430=COLOUR_RGB('',0.156862750649452,0.549019634723663,0.941176474094391);
#431=AXIS2_PLACEMENT_3D('',#472,#473,#474);
#432=COLOUR_RGB('',0.156862750649452,0.549019634723663,0.941176474094391);
#433=CARTESIAN_POINT('',(1.625,-0.8125,0.25));
#434=VECTOR('',#475,1.0);
#435=COLOUR_RGB('',0.156862750649452,0.549019634723663,0.941176474094391);
#436=DIRECTION('',(-0.0,0.0,1.0));
#437=CARTESIAN_POINT('',(0.8125,0.0,0.25));
#438=DIRECTION('',(0.0,0.0,1.0));
#439=DIRECTION('',(1.0,0.0,0.0));
#440=DIRECTION('',(-0.0,0.0,-1.0));
#441=CARTESIAN_POINT('',(0.8125,0.0,0.0));
#442=DIRECTION('',(0.0,0.0,1.0));
#443=DIRECTION('',(1.0,0.0,-0.0));
#444=CARTESIAN_POINT('',(0.8125,0.0,0.0));
#445=DIRECTION('',(0.0,0.0,1.0));
#446=DIRECTION('',(1.0,0.0,-0.0));
#447=CARTESIAN_POINT('',(0.8125,0.0,0.25));
#448=DIRECTION('',(0.0,0.0,1.0));
#449=DIRECTION('',(1.0,0.0,0.0));
#450=DIRECTION('',(-0.0,0.0,1.0));
#451=CARTESIAN_POINT('',(-0.8125,0.0,0.0));
#452=DIRECTION('',(0.0,0.0,1.0));
#453=DIRECTION('',(1.0,0.0,-0.0));
#454=DIRECTION('',(-0.0,0.0,-1.0));
#455=CARTESIAN_POINT('',(-0.8125,0.0,0.25));
#456=DIRECTION('',(0.0,0.0,1.0));
#457=DIRECTION('',(1.0,0.0,0.0));
#458=DIRECTION('',(-1.0,-0.0,-0.0));
#459=DIRECTION('',(0.0,0.0,1.0));
#460=DIRECTION('',(1.0,0.0,0.0));
#461=DIRECTION('',(0.0,0.0,1.0));
#462=DIRECTION('',(1.0,0.0,0.0));
#463=DIRECTION('',(0.0,0.0,1.0));
#464=DIRECTION('',(-1.0,0.0,0.0));
#465=DIRECTION('',(0.0,0.0,1.0));
#466=CARTESIAN_POINT('',(-0.8125,0.0,0.0));
#467=DIRECTION('',(0.0,0.0,1.0));
#468=DIRECTION('',(1.0,0.0,-0.0));
#469=DIRECTION('',(0.0,-1.0,0.0));
#470=DIRECTION('',(0.0,1.0,0.0));
#471=DIRECTION('',(0.0,1.0,0.0));
#472=CARTESIAN_POINT('',(-0.8125,0.0,0.25));
#473=DIRECTION('',(0.0,0.0,1.0));
#474=DIRECTION('',(1.0,0.0,0.0));
#475=DIRECTION('',(-0.0,-1.0,-0.0));
ENDSEC;
END-ISO-10303-21;
