ISO-10303-21;
HEADER;
FILE_DESCRIPTION(('TurboCAD Mac Pro'),'Build 980');
FILE_NAME('P1356.stp','  ',(''),(''),'ACIS Interop','IMSI','TurboCAD Mac Pro BY IMSI, INCORPORATED');
FILE_SCHEMA(('automotive_design'));
ENDSEC;
DATA;
#1=MECHANICAL_DESIGN_GEOMETRIC_PRESENTATION_REPRESENTATION(' ',(#14,#15,#16,#17,#18,#19,#20,#21,#22,#23,#24,#25,#26,#27,#28,#29,#30,#31),#10);
#2=PRODUCT_DEFINITION_CONTEXT('',#32,'design');
#3=APPLICATION_PROTOCOL_DEFINITION('INTERNATIONAL STANDARD','automotive_design',1994,#32);
#4=PRODUCT_CATEGORY_RELATIONSHIP('NONE','NONE',#33,#34);
#5=SHAPE_DEFINITION_REPRESENTATION(#35,#36);
#6=PRODUCT_DEFINITION_CONTEXT('',#37,'design');
#7=APPLICATION_PROTOCOL_DEFINITION('INTERNATIONAL STANDARD','automotive_design',1994,#37);
#8=PRODUCT_CATEGORY_RELATIONSHIP('NONE','NONE',#38,#39);
#9=SHAPE_DEFINITION_REPRESENTATION(#40,#41);
#10= (GEOMETRIC_REPRESENTATION_CONTEXT(3)GLOBAL_UNCERTAINTY_ASSIGNED_CONTEXT((#44))GLOBAL_UNIT_ASSIGNED_CONTEXT((#46,#47,#48))REPRESENTATION_CONTEXT('NONE','WORKSPACE'));
#14=STYLED_ITEM('',(#50),#51);
#15=STYLED_ITEM('',(#52),#53);
#16=STYLED_ITEM('',(#54),#55);
#17=STYLED_ITEM('',(#56),#57);
#18=STYLED_ITEM('',(#58),#59);
#19=STYLED_ITEM('',(#60),#61);
#20=STYLED_ITEM('',(#62),#63);
#21=STYLED_ITEM('',(#64),#65);
#22=STYLED_ITEM('',(#66),#67);
#23=STYLED_ITEM('',(#68),#69);
#24=STYLED_ITEM('',(#70),#71);
#25=STYLED_ITEM('',(#72),#73);
#26=STYLED_ITEM('',(#74),#75);
#27=STYLED_ITEM('',(#76),#77);
#28=STYLED_ITEM('',(#78),#79);
#29=STYLED_ITEM('',(#80),#81);
#30=STYLED_ITEM('',(#82),#83);
#31=STYLED_ITEM('',(#84),#85);
#32=APPLICATION_CONTEXT(' ');
#33=PRODUCT_CATEGORY('part','NONE');
#34=PRODUCT_RELATED_PRODUCT_CATEGORY('detail',' ',(#86));
#35=PRODUCT_DEFINITION_SHAPE('NONE','NONE',#87);
#36=ADVANCED_BREP_SHAPE_REPRESENTATION('1',(#53,#88),#10);
#37=APPLICATION_CONTEXT(' ');
#38=PRODUCT_CATEGORY('part','NONE');
#39=PRODUCT_RELATED_PRODUCT_CATEGORY('detail',' ',(#89));
#40=PRODUCT_DEFINITION_SHAPE('NONE','NONE',#90);
#41=GEOMETRICALLY_BOUNDED_SURFACE_SHAPE_REPRESENTATION('2',(#91,#92),#10);
#44=UNCERTAINTY_MEASURE_WITH_UNIT(LENGTH_MEASURE(1.0E-06),#46,'','');
#46= (CONVERSION_BASED_UNIT('INCH',#95)LENGTH_UNIT()NAMED_UNIT(#98));
#47= (NAMED_UNIT(#100)PLANE_ANGLE_UNIT()SI_UNIT($,.RADIAN.));
#48= (NAMED_UNIT(#100)SOLID_ANGLE_UNIT()SI_UNIT($,.STERADIAN.));
#50=PRESENTATION_STYLE_ASSIGNMENT((#106));
#51=ADVANCED_FACE('',(#107),#108,.F.);
#52=PRESENTATION_STYLE_ASSIGNMENT((#109));
#53=MANIFOLD_SOLID_BREP('1',#110);
#54=PRESENTATION_STYLE_ASSIGNMENT((#111));
#55=TRIMMED_CURVE('',#112,(PARAMETER_VALUE(0.0)),(PARAMETER_VALUE(6.28318530717959)),.T.,.UNSPECIFIED.);
#56=PRESENTATION_STYLE_ASSIGNMENT((#113));
#57=ADVANCED_FACE('',(#114),#115,.F.);
#58=PRESENTATION_STYLE_ASSIGNMENT((#116));
#59=ADVANCED_FACE('',(#117),#118,.T.);
#60=PRESENTATION_STYLE_ASSIGNMENT((#119));
#61=ADVANCED_FACE('',(#120),#121,.T.);
#62=PRESENTATION_STYLE_ASSIGNMENT((#122));
#63=TRIMMED_CURVE('',#123,(PARAMETER_VALUE(0.0)),(PARAMETER_VALUE(6.28318530717959)),.T.,.UNSPECIFIED.);
#64=PRESENTATION_STYLE_ASSIGNMENT((#124));
#65=ADVANCED_FACE('',(#125,#126,#127,#128),#129,.T.);
#66=PRESENTATION_STYLE_ASSIGNMENT((#130));
#67=ADVANCED_FACE('',(#131),#132,.T.);
#68=PRESENTATION_STYLE_ASSIGNMENT((#133));
#69=ADVANCED_FACE('',(#134),#135,.T.);
#70=PRESENTATION_STYLE_ASSIGNMENT((#136));
#71=TRIMMED_CURVE('',#137,(PARAMETER_VALUE(0.0)),(PARAMETER_VALUE(6.28318530717959)),.T.,.UNSPECIFIED.);
#72=PRESENTATION_STYLE_ASSIGNMENT((#138));
#73=ADVANCED_FACE('',(#139),#140,.F.);
#74=PRESENTATION_STYLE_ASSIGNMENT((#141));
#75=ADVANCED_FACE('',(#142),#143,.F.);
#76=PRESENTATION_STYLE_ASSIGNMENT((#144));
#77=ADVANCED_FACE('',(#145),#146,.F.);
#78=PRESENTATION_STYLE_ASSIGNMENT((#147));
#79=ADVANCED_FACE('',(#148),#149,.T.);
#80=PRESENTATION_STYLE_ASSIGNMENT((#150));
#81=ADVANCED_FACE('',(#151),#152,.F.);
#82=PRESENTATION_STYLE_ASSIGNMENT((#153));
#83=ADVANCED_FACE('',(#154,#155,#156,#157),#158,.F.);
#84=PRESENTATION_STYLE_ASSIGNMENT((#159));
#85=ADVANCED_FACE('',(#160),#161,.T.);
#86=PRODUCT('1','1','PART-1-DESC',(#162));
#87=PRODUCT_DEFINITION('NONE','NONE',#163,#2);
#88=AXIS2_PLACEMENT_3D('',#164,#165,#166);
#89=PRODUCT('2','2','PART-2-DESC',(#167));
#90=PRODUCT_DEFINITION('NONE','NONE',#168,#6);
#91=GEOMETRIC_SET('2',(#169,#170,#171));
#92=AXIS2_PLACEMENT_3D('',#172,#173,#174);
#95=LENGTH_MEASURE_WITH_UNIT(LENGTH_MEASURE(25.4),#175);
#98=DIMENSIONAL_EXPONENTS(1.0,0.0,0.0,0.0,0.0,0.0,0.0);
#100=DIMENSIONAL_EXPONENTS(0.0,0.0,0.0,0.0,0.0,0.0,0.0);
#106=SURFACE_STYLE_USAGE(.BOTH.,#176);
#107=FACE_OUTER_BOUND('',#177,.T.);
#108=CYLINDRICAL_SURFACE('',#178,0.28125);
#109=SURFACE_STYLE_USAGE(.BOTH.,#179);
#110=CLOSED_SHELL('',(#57,#75,#77,#79,#69,#67,#61,#85,#59,#51,#73,#81,#65,#83));
#111=CURVE_STYLE('',#180,POSITIVE_LENGTH_MEASURE(1.0E-06),#181);
#112=CIRCLE('',#182,0.28125);
#113=SURFACE_STYLE_USAGE(.BOTH.,#183);
#114=FACE_OUTER_BOUND('',#184,.T.);
#115=CYLINDRICAL_SURFACE('',#185,0.28125);
#116=SURFACE_STYLE_USAGE(.BOTH.,#186);
#117=FACE_OUTER_BOUND('',#187,.T.);
#118=PLANE('',#188);
#119=SURFACE_STYLE_USAGE(.BOTH.,#189);
#120=FACE_OUTER_BOUND('',#190,.T.);
#121=PLANE('',#191);
#122=CURVE_STYLE('',#192,POSITIVE_LENGTH_MEASURE(1.0E-06),#193);
#123=CIRCLE('',#194,0.28125);
#124=SURFACE_STYLE_USAGE(.BOTH.,#195);
#125=FACE_BOUND('',#196,.T.);
#126=FACE_BOUND('',#197,.T.);
#127=FACE_BOUND('',#198,.T.);
#128=FACE_OUTER_BOUND('',#199,.T.);
#129=PLANE('',#200);
#130=SURFACE_STYLE_USAGE(.BOTH.,#201);
#131=FACE_OUTER_BOUND('',#202,.T.);
#132=PLANE('',#203);
#133=SURFACE_STYLE_USAGE(.BOTH.,#204);
#134=FACE_OUTER_BOUND('',#205,.T.);
#135=PLANE('',#206);
#136=CURVE_STYLE('',#207,POSITIVE_LENGTH_MEASURE(1.0E-06),#208);
#137=CIRCLE('',#209,0.28125);
#138=SURFACE_STYLE_USAGE(.BOTH.,#210);
#139=FACE_OUTER_BOUND('',#211,.T.);
#140=CYLINDRICAL_SURFACE('',#212,0.28125);
#141=SURFACE_STYLE_USAGE(.BOTH.,#213);
#142=FACE_OUTER_BOUND('',#214,.T.);
#143=CYLINDRICAL_SURFACE('',#215,0.28125);
#144=SURFACE_STYLE_USAGE(.BOTH.,#216);
#145=FACE_OUTER_BOUND('',#217,.T.);
#146=CYLINDRICAL_SURFACE('',#218,0.28125);
#147=SURFACE_STYLE_USAGE(.BOTH.,#219);
#148=FACE_OUTER_BOUND('',#220,.T.);
#149=PLANE('',#221);
#150=SURFACE_STYLE_USAGE(.BOTH.,#222);
#151=FACE_OUTER_BOUND('',#223,.T.);
#152=CYLINDRICAL_SURFACE('',#224,0.28125);
#153=SURFACE_STYLE_USAGE(.BOTH.,#225);
#154=FACE_BOUND('',#226,.T.);
#155=FACE_BOUND('',#227,.T.);
#156=FACE_BOUND('',#228,.T.);
#157=FACE_OUTER_BOUND('',#229,.T.);
#158=PLANE('',#230);
#159=SURFACE_STYLE_USAGE(.BOTH.,#231);
#160=FACE_OUTER_BOUND('',#232,.T.);
#161=PLANE('',#233);
#162=PRODUCT_CONTEXT('',#32,'mechanical');
#163=PRODUCT_DEFINITION_FORMATION_WITH_SPECIFIED_SOURCE(' ','NONE',#86,.NOT_KNOWN.);
#164=CARTESIAN_POINT('',(0.0,0.0,0.0));
#165=DIRECTION('',(0.0,0.0,1.0));
#166=DIRECTION('',(1.0,0.0,0.0));
#167=PRODUCT_CONTEXT('',#37,'mechanical');
#168=PRODUCT_DEFINITION_FORMATION_WITH_SPECIFIED_SOURCE(' ','NONE',#89,.NOT_KNOWN.);
#169=COMPOSITE_CURVE('',(#234),.U.);
#170=COMPOSITE_CURVE('',(#235),.U.);
#171=COMPOSITE_CURVE('',(#236),.U.);
#172=CARTESIAN_POINT('',(0.0,0.0,0.0));
#173=DIRECTION('',(0.0,0.0,1.0));
#174=DIRECTION('',(1.0,0.0,0.0));
#175= (NAMED_UNIT(#98)LENGTH_UNIT()SI_UNIT(.MILLI.,.METRE.));
#176=SURFACE_SIDE_STYLE('',(#238));
#177=EDGE_LOOP('',(#239,#240,#241,#242));
#178=AXIS2_PLACEMENT_3D('',#243,#244,#245);
#179=SURFACE_SIDE_STYLE('',(#246));
#180=DRAUGHTING_PRE_DEFINED_CURVE_FONT('continuous');
#181=COLOUR_RGB('',1.0,1.0,1.0);
#182=AXIS2_PLACEMENT_3D('',#247,#248,#249);
#183=SURFACE_SIDE_STYLE('',(#250));
#184=EDGE_LOOP('',(#251,#252,#253,#254));
#185=AXIS2_PLACEMENT_3D('',#255,#256,#257);
#186=SURFACE_SIDE_STYLE('',(#258));
#187=EDGE_LOOP('',(#259,#260,#261,#262));
#188=AXIS2_PLACEMENT_3D('',#263,#264,#265);
#189=SURFACE_SIDE_STYLE('',(#266));
#190=EDGE_LOOP('',(#267,#268,#269,#270));
#191=AXIS2_PLACEMENT_3D('',#271,#272,#273);
#192=DRAUGHTING_PRE_DEFINED_CURVE_FONT('continuous');
#193=COLOUR_RGB('',1.0,1.0,1.0);
#194=AXIS2_PLACEMENT_3D('',#274,#275,#276);
#195=SURFACE_SIDE_STYLE('',(#277));
#196=EDGE_LOOP('',(#278,#279));
#197=EDGE_LOOP('',(#280,#281));
#198=EDGE_LOOP('',(#282,#283));
#199=EDGE_LOOP('',(#284,#285,#286,#287,#288,#289));
#200=AXIS2_PLACEMENT_3D('',#290,#291,#292);
#201=SURFACE_SIDE_STYLE('',(#293));
#202=EDGE_LOOP('',(#294,#295,#296,#297));
#203=AXIS2_PLACEMENT_3D('',#298,#299,#300);
#204=SURFACE_SIDE_STYLE('',(#301));
#205=EDGE_LOOP('',(#302,#303,#304,#305));
#206=AXIS2_PLACEMENT_3D('',#306,#307,#308);
#207=DRAUGHTING_PRE_DEFINED_CURVE_FONT('continuous');
#208=COLOUR_RGB('',1.0,1.0,1.0);
#209=AXIS2_PLACEMENT_3D('',#309,#310,#311);
#210=SURFACE_SIDE_STYLE('',(#312));
#211=EDGE_LOOP('',(#313,#314,#315,#316));
#212=AXIS2_PLACEMENT_3D('',#317,#318,#319);
#213=SURFACE_SIDE_STYLE('',(#320));
#214=EDGE_LOOP('',(#321,#322,#323,#324));
#215=AXIS2_PLACEMENT_3D('',#325,#326,#327);
#216=SURFACE_SIDE_STYLE('',(#328));
#217=EDGE_LOOP('',(#329,#330,#331,#332));
#218=AXIS2_PLACEMENT_3D('',#333,#334,#335);
#219=SURFACE_SIDE_STYLE('',(#336));
#220=EDGE_LOOP('',(#337,#338,#339,#340));
#221=AXIS2_PLACEMENT_3D('',#341,#342,#343);
#222=SURFACE_SIDE_STYLE('',(#344));
#223=EDGE_LOOP('',(#345,#346,#347,#348));
#224=AXIS2_PLACEMENT_3D('',#349,#350,#351);
#225=SURFACE_SIDE_STYLE('',(#352));
#226=EDGE_LOOP('',(#353,#354));
#227=EDGE_LOOP('',(#355,#356));
#228=EDGE_LOOP('',(#357,#358));
#229=EDGE_LOOP('',(#359,#360,#361,#362,#363,#364));
#230=AXIS2_PLACEMENT_3D('',#365,#366,#367);
#231=SURFACE_SIDE_STYLE('',(#368));
#232=EDGE_LOOP('',(#369,#370,#371,#372));
#233=AXIS2_PLACEMENT_3D('',#373,#374,#375);
#234=COMPOSITE_CURVE_SEGMENT('',.CONTINUOUS.,.T.,#55);
#235=COMPOSITE_CURVE_SEGMENT('',.CONTINUOUS.,.T.,#71);
#236=COMPOSITE_CURVE_SEGMENT('',.CONTINUOUS.,.T.,#63);
#238=SURFACE_STYLE_FILL_AREA(#376);
#239=ORIENTED_EDGE('',*,*,#377,.T.);
#240=ORIENTED_EDGE('',*,*,#378,.T.);
#241=ORIENTED_EDGE('',*,*,#379,.T.);
#242=ORIENTED_EDGE('',*,*,#380,.F.);
#243=CARTESIAN_POINT('',(1.875,0.9375,0.0));
#244=DIRECTION('',(-0.0,-0.0,-1.0));
#245=DIRECTION('',(1.0,0.0,0.0));
#246=SURFACE_STYLE_FILL_AREA(#381);
#247=CARTESIAN_POINT('',(0.0,0.0,0.0));
#248=DIRECTION('',(0.0,0.0,1.0));
#249=DIRECTION('',(1.0,-2.44929359829471E-16,0.0));
#250=SURFACE_STYLE_FILL_AREA(#382);
#251=ORIENTED_EDGE('',*,*,#383,.F.);
#252=ORIENTED_EDGE('',*,*,#384,.F.);
#253=ORIENTED_EDGE('',*,*,#385,.F.);
#254=ORIENTED_EDGE('',*,*,#386,.T.);
#255=CARTESIAN_POINT('',(1.875,-0.9375,0.0));
#256=DIRECTION('',(-0.0,-0.0,-1.0));
#257=DIRECTION('',(1.0,0.0,0.0));
#258=SURFACE_STYLE_FILL_AREA(#387);
#259=ORIENTED_EDGE('',*,*,#388,.T.);
#260=ORIENTED_EDGE('',*,*,#389,.F.);
#261=ORIENTED_EDGE('',*,*,#390,.F.);
#262=ORIENTED_EDGE('',*,*,#391,.T.);
#263=CARTESIAN_POINT('',(2.6875,-8.88178419700125E-16,0.0));
#264=DIRECTION('',(1.0,-1.26882631385732E-16,0.0));
#265=DIRECTION('',(1.26882631385732E-16,1.0,-0.0));
#266=SURFACE_STYLE_FILL_AREA(#392);
#267=ORIENTED_EDGE('',*,*,#393,.T.);
#268=ORIENTED_EDGE('',*,*,#394,.F.);
#269=ORIENTED_EDGE('',*,*,#395,.F.);
#270=ORIENTED_EDGE('',*,*,#396,.T.);
#271=CARTESIAN_POINT('',(0.124999999999999,1.28125,0.0));
#272=DIRECTION('',(-0.447213595499958,0.894427190999916,0.0));
#273=DIRECTION('',(-0.894427190999916,-0.447213595499958,-0.0));
#274=CARTESIAN_POINT('',(1.875,-0.9375,0.0));
#275=DIRECTION('',(0.0,0.0,1.0));
#276=DIRECTION('',(1.0,-3.94745964311167E-16,0.0));
#277=SURFACE_STYLE_FILL_AREA(#397);
#278=ORIENTED_EDGE('',*,*,#398,.F.);
#279=ORIENTED_EDGE('',*,*,#386,.F.);
#280=ORIENTED_EDGE('',*,*,#399,.F.);
#281=ORIENTED_EDGE('',*,*,#400,.F.);
#282=ORIENTED_EDGE('',*,*,#378,.F.);
#283=ORIENTED_EDGE('',*,*,#401,.F.);
#284=ORIENTED_EDGE('',*,*,#402,.F.);
#285=ORIENTED_EDGE('',*,*,#388,.F.);
#286=ORIENTED_EDGE('',*,*,#403,.F.);
#287=ORIENTED_EDGE('',*,*,#393,.F.);
#288=ORIENTED_EDGE('',*,*,#404,.F.);
#289=ORIENTED_EDGE('',*,*,#405,.F.);
#290=CARTESIAN_POINT('',(1.16997149872441,-3.88578058618805E-16,0.25));
#291=DIRECTION('',(0.0,0.0,1.0));
#292=DIRECTION('',(1.0,0.0,0.0));
#293=SURFACE_STYLE_FILL_AREA(#406);
#294=ORIENTED_EDGE('',*,*,#404,.T.);
#295=ORIENTED_EDGE('',*,*,#396,.F.);
#296=ORIENTED_EDGE('',*,*,#407,.F.);
#297=ORIENTED_EDGE('',*,*,#408,.T.);
#298=CARTESIAN_POINT('',(-0.812500000000002,0.0,0.0));
#299=DIRECTION('',(-1.0,2.73285667600039E-16,0.0));
#300=DIRECTION('',(-2.73285667600039E-16,-1.0,-0.0));
#301=SURFACE_STYLE_FILL_AREA(#409);
#302=ORIENTED_EDGE('',*,*,#405,.T.);
#303=ORIENTED_EDGE('',*,*,#408,.F.);
#304=ORIENTED_EDGE('',*,*,#410,.F.);
#305=ORIENTED_EDGE('',*,*,#411,.T.);
#306=CARTESIAN_POINT('',(0.124999999999999,-1.28125,0.0));
#307=DIRECTION('',(-0.447213595499958,-0.894427190999916,0.0));
#308=DIRECTION('',(0.894427190999916,-0.447213595499958,-0.0));
#309=CARTESIAN_POINT('',(1.875,0.9375,0.0));
#310=DIRECTION('',(0.0,0.0,1.0));
#311=DIRECTION('',(1.0,-3.94745964311167E-16,0.0));
#312=SURFACE_STYLE_FILL_AREA(#412);
#313=ORIENTED_EDGE('',*,*,#413,.T.);
#314=ORIENTED_EDGE('',*,*,#399,.T.);
#315=ORIENTED_EDGE('',*,*,#414,.T.);
#316=ORIENTED_EDGE('',*,*,#415,.F.);
#317=CARTESIAN_POINT('',(0.0,0.0,0.0));
#318=DIRECTION('',(-0.0,-0.0,-1.0));
#319=DIRECTION('',(1.0,0.0,0.0));
#320=SURFACE_STYLE_FILL_AREA(#416);
#321=ORIENTED_EDGE('',*,*,#413,.F.);
#322=ORIENTED_EDGE('',*,*,#417,.F.);
#323=ORIENTED_EDGE('',*,*,#414,.F.);
#324=ORIENTED_EDGE('',*,*,#400,.T.);
#325=CARTESIAN_POINT('',(0.0,0.0,0.0));
#326=DIRECTION('',(-0.0,-0.0,-1.0));
#327=DIRECTION('',(1.0,0.0,0.0));
#328=SURFACE_STYLE_FILL_AREA(#418);
#329=ORIENTED_EDGE('',*,*,#377,.F.);
#330=ORIENTED_EDGE('',*,*,#419,.F.);
#331=ORIENTED_EDGE('',*,*,#379,.F.);
#332=ORIENTED_EDGE('',*,*,#401,.T.);
#333=CARTESIAN_POINT('',(1.875,0.9375,0.0));
#334=DIRECTION('',(-0.0,-0.0,-1.0));
#335=DIRECTION('',(1.0,0.0,0.0));
#336=SURFACE_STYLE_FILL_AREA(#420);
#337=ORIENTED_EDGE('',*,*,#402,.T.);
#338=ORIENTED_EDGE('',*,*,#411,.F.);
#339=ORIENTED_EDGE('',*,*,#421,.F.);
#340=ORIENTED_EDGE('',*,*,#389,.T.);
#341=CARTESIAN_POINT('',(1.875,-1.75,0.0));
#342=DIRECTION('',(-2.73285667600039E-16,-1.0,0.0));
#343=DIRECTION('',(1.0,-2.73285667600039E-16,-0.0));
#344=SURFACE_STYLE_FILL_AREA(#422);
#345=ORIENTED_EDGE('',*,*,#383,.T.);
#346=ORIENTED_EDGE('',*,*,#398,.T.);
#347=ORIENTED_EDGE('',*,*,#385,.T.);
#348=ORIENTED_EDGE('',*,*,#423,.F.);
#349=CARTESIAN_POINT('',(1.875,-0.9375,0.0));
#350=DIRECTION('',(-0.0,-0.0,-1.0));
#351=DIRECTION('',(1.0,0.0,0.0));
#352=SURFACE_STYLE_FILL_AREA(#424);
#353=ORIENTED_EDGE('',*,*,#423,.T.);
#354=ORIENTED_EDGE('',*,*,#384,.T.);
#355=ORIENTED_EDGE('',*,*,#415,.T.);
#356=ORIENTED_EDGE('',*,*,#417,.T.);
#357=ORIENTED_EDGE('',*,*,#380,.T.);
#358=ORIENTED_EDGE('',*,*,#419,.T.);
#359=ORIENTED_EDGE('',*,*,#390,.T.);
#360=ORIENTED_EDGE('',*,*,#421,.T.);
#361=ORIENTED_EDGE('',*,*,#410,.T.);
#362=ORIENTED_EDGE('',*,*,#407,.T.);
#363=ORIENTED_EDGE('',*,*,#395,.T.);
#364=ORIENTED_EDGE('',*,*,#425,.T.);
#365=CARTESIAN_POINT('',(1.16997149872441,-3.88578058618805E-16,0.0));
#366=DIRECTION('',(0.0,0.0,1.0));
#367=DIRECTION('',(1.0,0.0,0.0));
#368=SURFACE_STYLE_FILL_AREA(#426);
#369=ORIENTED_EDGE('',*,*,#403,.T.);
#370=ORIENTED_EDGE('',*,*,#391,.F.);
#371=ORIENTED_EDGE('',*,*,#425,.F.);
#372=ORIENTED_EDGE('',*,*,#394,.T.);
#373=CARTESIAN_POINT('',(1.875,1.75,0.0));
#374=DIRECTION('',(5.46571335200077E-16,1.0,-0.0));
#375=DIRECTION('',(-1.0,5.46571335200077E-16,0.0));
#376=FILL_AREA_STYLE('',(#427));
#377=EDGE_CURVE('',#428,#429,#430,.T.);
#378=EDGE_CURVE('',#429,#431,#432,.T.);
#379=EDGE_CURVE('',#431,#433,#434,.T.);
#380=EDGE_CURVE('',#428,#433,#435,.T.);
#381=FILL_AREA_STYLE('',(#436));
#382=FILL_AREA_STYLE('',(#437));
#383=EDGE_CURVE('',#438,#439,#440,.T.);
#384=EDGE_CURVE('',#441,#438,#442,.T.);
#385=EDGE_CURVE('',#443,#441,#444,.T.);
#386=EDGE_CURVE('',#443,#439,#445,.T.);
#387=FILL_AREA_STYLE('',(#446));
#388=EDGE_CURVE('',#447,#448,#449,.T.);
#389=EDGE_CURVE('',#450,#448,#451,.T.);
#390=EDGE_CURVE('',#452,#450,#453,.T.);
#391=EDGE_CURVE('',#452,#447,#454,.T.);
#392=FILL_AREA_STYLE('',(#455));
#393=EDGE_CURVE('',#456,#457,#458,.T.);
#394=EDGE_CURVE('',#459,#457,#460,.T.);
#395=EDGE_CURVE('',#461,#459,#462,.T.);
#396=EDGE_CURVE('',#461,#456,#463,.T.);
#397=FILL_AREA_STYLE('',(#464));
#398=EDGE_CURVE('',#439,#443,#465,.T.);
#399=EDGE_CURVE('',#466,#467,#468,.T.);
#400=EDGE_CURVE('',#467,#466,#469,.T.);
#401=EDGE_CURVE('',#431,#429,#470,.T.);
#402=EDGE_CURVE('',#448,#471,#472,.T.);
#403=EDGE_CURVE('',#457,#447,#473,.T.);
#404=EDGE_CURVE('',#474,#456,#475,.T.);
#405=EDGE_CURVE('',#471,#474,#476,.T.);
#406=FILL_AREA_STYLE('',(#477));
#407=EDGE_CURVE('',#478,#461,#479,.T.);
#408=EDGE_CURVE('',#478,#474,#480,.T.);
#409=FILL_AREA_STYLE('',(#481));
#410=EDGE_CURVE('',#482,#478,#483,.T.);
#411=EDGE_CURVE('',#482,#471,#484,.T.);
#412=FILL_AREA_STYLE('',(#485));
#413=EDGE_CURVE('',#486,#466,#487,.T.);
#414=EDGE_CURVE('',#467,#488,#489,.T.);
#415=EDGE_CURVE('',#486,#488,#490,.T.);
#416=FILL_AREA_STYLE('',(#491));
#417=EDGE_CURVE('',#488,#486,#492,.T.);
#418=FILL_AREA_STYLE('',(#493));
#419=EDGE_CURVE('',#433,#428,#494,.T.);
#420=FILL_AREA_STYLE('',(#495));
#421=EDGE_CURVE('',#450,#482,#496,.T.);
#422=FILL_AREA_STYLE('',(#497));
#423=EDGE_CURVE('',#438,#441,#498,.T.);
#424=FILL_AREA_STYLE('',(#499));
#425=EDGE_CURVE('',#459,#452,#500,.T.);
#426=FILL_AREA_STYLE('',(#501));
#427=FILL_AREA_STYLE_COLOUR('',#502);
#428=VERTEX_POINT('',#503);
#429=VERTEX_POINT('',#504);
#430=LINE('',#505,#506);
#431=VERTEX_POINT('',#507);
#432=CIRCLE('',#508,0.28125);
#433=VERTEX_POINT('',#509);
#434=LINE('',#510,#511);
#435=CIRCLE('',#512,0.28125);
#436=FILL_AREA_STYLE_COLOUR('',#513);
#437=FILL_AREA_STYLE_COLOUR('',#514);
#438=VERTEX_POINT('',#515);
#439=VERTEX_POINT('',#516);
#440=LINE('',#517,#518);
#441=VERTEX_POINT('',#519);
#442=CIRCLE('',#520,0.28125);
#443=VERTEX_POINT('',#521);
#444=LINE('',#522,#523);
#445=CIRCLE('',#524,0.28125);
#446=FILL_AREA_STYLE_COLOUR('',#525);
#447=VERTEX_POINT('',#526);
#448=VERTEX_POINT('',#527);
#449=LINE('',#528,#529);
#450=VERTEX_POINT('',#530);
#451=LINE('',#531,#532);
#452=VERTEX_POINT('',#533);
#453=LINE('',#534,#535);
#454=LINE('',#536,#537);
#455=FILL_AREA_STYLE_COLOUR('',#538);
#456=VERTEX_POINT('',#539);
#457=VERTEX_POINT('',#540);
#458=LINE('',#541,#542);
#459=VERTEX_POINT('',#543);
#460=LINE('',#544,#545);
#461=VERTEX_POINT('',#546);
#462=LINE('',#547,#548);
#463=LINE('',#549,#550);
#464=FILL_AREA_STYLE_COLOUR('',#551);
#465=CIRCLE('',#552,0.28125);
#466=VERTEX_POINT('',#553);
#467=VERTEX_POINT('',#554);
#468=CIRCLE('',#555,0.28125);
#469=CIRCLE('',#556,0.28125);
#470=CIRCLE('',#557,0.28125);
#471=VERTEX_POINT('',#558);
#472=LINE('',#559,#560);
#473=LINE('',#561,#562);
#474=VERTEX_POINT('',#563);
#475=LINE('',#564,#565);
#476=LINE('',#566,#567);
#477=FILL_AREA_STYLE_COLOUR('',#568);
#478=VERTEX_POINT('',#569);
#479=LINE('',#570,#571);
#480=LINE('',#572,#573);
#481=FILL_AREA_STYLE_COLOUR('',#574);
#482=VERTEX_POINT('',#575);
#483=LINE('',#576,#577);
#484=LINE('',#578,#579);
#485=FILL_AREA_STYLE_COLOUR('',#580);
#486=VERTEX_POINT('',#581);
#487=LINE('',#582,#583);
#488=VERTEX_POINT('',#584);
#489=LINE('',#585,#586);
#490=CIRCLE('',#587,0.28125);
#491=FILL_AREA_STYLE_COLOUR('',#588);
#492=CIRCLE('',#589,0.28125);
#493=FILL_AREA_STYLE_COLOUR('',#590);
#494=CIRCLE('',#591,0.28125);
#495=FILL_AREA_STYLE_COLOUR('',#592);
#496=LINE('',#593,#594);
#497=FILL_AREA_STYLE_COLOUR('',#595);
#498=CIRCLE('',#596,0.28125);
#499=FILL_AREA_STYLE_COLOUR('',#597);
#500=LINE('',#598,#599);
#501=FILL_AREA_STYLE_COLOUR('',#600);
#502=COLOUR_RGB('',0.156862750649452,0.549019634723663,0.941176474094391);
#503=CARTESIAN_POINT('',(2.15625,0.9375,0.0));
#504=CARTESIAN_POINT('',(2.15625,0.9375,0.25));
#505=CARTESIAN_POINT('',(2.15625,0.9375,0.0));
#506=VECTOR('',#601,1.0);
#507=CARTESIAN_POINT('',(1.59375,0.9375,0.25));
#508=AXIS2_PLACEMENT_3D('',#602,#603,#604);
#509=CARTESIAN_POINT('',(1.59375,0.9375,0.0));
#510=CARTESIAN_POINT('',(1.59375,0.9375,0.0));
#511=VECTOR('',#605,1.0);
#512=AXIS2_PLACEMENT_3D('',#606,#607,#608);
#513=COLOUR_RGB('',0.156862750649452,0.549019634723663,0.941176474094391);
#514=COLOUR_RGB('',0.156862750649452,0.549019634723663,0.941176474094391);
#515=CARTESIAN_POINT('',(2.15625,-0.9375,0.0));
#516=CARTESIAN_POINT('',(2.15625,-0.9375,0.25));
#517=CARTESIAN_POINT('',(2.15625,-0.9375,0.0));
#518=VECTOR('',#609,1.0);
#519=CARTESIAN_POINT('',(1.59375,-0.9375,0.0));
#520=AXIS2_PLACEMENT_3D('',#610,#611,#612);
#521=CARTESIAN_POINT('',(1.59375,-0.9375,0.25));
#522=CARTESIAN_POINT('',(1.59375,-0.9375,0.0));
#523=VECTOR('',#613,1.0);
#524=AXIS2_PLACEMENT_3D('',#614,#615,#616);
#525=COLOUR_RGB('',0.156862750649452,0.549019634723663,0.941176474094391);
#526=CARTESIAN_POINT('',(2.6875,1.75,0.25));
#527=CARTESIAN_POINT('',(2.6875,-1.75,0.25));
#528=CARTESIAN_POINT('',(2.6875,1.75,0.25));
#529=VECTOR('',#617,1.0);
#530=CARTESIAN_POINT('',(2.6875,-1.75,0.0));
#531=CARTESIAN_POINT('',(2.6875,-1.75,0.0));
#532=VECTOR('',#618,1.0);
#533=CARTESIAN_POINT('',(2.6875,1.75,0.0));
#534=CARTESIAN_POINT('',(2.6875,1.75,0.0));
#535=VECTOR('',#619,1.0);
#536=CARTESIAN_POINT('',(2.6875,1.75,0.0));
#537=VECTOR('',#620,1.0);
#538=COLOUR_RGB('',0.156862750649452,0.549019634723663,0.941176474094391);
#539=CARTESIAN_POINT('',(-0.812500000000002,0.8125,0.25));
#540=CARTESIAN_POINT('',(1.0625,1.75,0.25));
#541=CARTESIAN_POINT('',(-0.812500000000002,0.8125,0.25));
#542=VECTOR('',#621,1.0);
#543=CARTESIAN_POINT('',(1.0625,1.75,0.0));
#544=CARTESIAN_POINT('',(1.0625,1.75,0.0));
#545=VECTOR('',#622,1.0);
#546=CARTESIAN_POINT('',(-0.812500000000002,0.8125,0.0));
#547=CARTESIAN_POINT('',(-0.812500000000002,0.8125,0.0));
#548=VECTOR('',#623,1.0);
#549=CARTESIAN_POINT('',(-0.812500000000002,0.8125,0.0));
#550=VECTOR('',#624,1.0);
#551=COLOUR_RGB('',0.156862750649452,0.549019634723663,0.941176474094391);
#552=AXIS2_PLACEMENT_3D('',#625,#626,#627);
#553=CARTESIAN_POINT('',(0.28125,0.0,0.25));
#554=CARTESIAN_POINT('',(-0.28125,3.44431912260193E-17,0.25));
#555=AXIS2_PLACEMENT_3D('',#628,#629,#630);
#556=AXIS2_PLACEMENT_3D('',#631,#632,#633);
#557=AXIS2_PLACEMENT_3D('',#634,#635,#636);
#558=CARTESIAN_POINT('',(1.0625,-1.75,0.25));
#559=CARTESIAN_POINT('',(2.6875,-1.75,0.25));
#560=VECTOR('',#637,1.0);
#561=CARTESIAN_POINT('',(1.0625,1.75,0.25));
#562=VECTOR('',#638,1.0);
#563=CARTESIAN_POINT('',(-0.812500000000002,-0.8125,0.25));
#564=CARTESIAN_POINT('',(-0.812500000000002,-0.8125,0.25));
#565=VECTOR('',#639,1.0);
#566=CARTESIAN_POINT('',(1.0625,-1.75,0.25));
#567=VECTOR('',#640,1.0);
#568=COLOUR_RGB('',0.156862750649452,0.549019634723663,0.941176474094391);
#569=CARTESIAN_POINT('',(-0.812500000000002,-0.8125,0.0));
#570=CARTESIAN_POINT('',(-0.812500000000002,-0.8125,0.0));
#571=VECTOR('',#641,1.0);
#572=CARTESIAN_POINT('',(-0.812500000000002,-0.8125,0.0));
#573=VECTOR('',#642,1.0);
#574=COLOUR_RGB('',0.156862750649452,0.549019634723663,0.941176474094391);
#575=CARTESIAN_POINT('',(1.0625,-1.75,0.0));
#576=CARTESIAN_POINT('',(1.0625,-1.75,0.0));
#577=VECTOR('',#643,1.0);
#578=CARTESIAN_POINT('',(1.0625,-1.75,0.0));
#579=VECTOR('',#644,1.0);
#580=COLOUR_RGB('',0.156862750649452,0.549019634723663,0.941176474094391);
#581=CARTESIAN_POINT('',(0.28125,0.0,0.0));
#582=CARTESIAN_POINT('',(0.28125,-3.44431912260193E-17,0.0));
#583=VECTOR('',#645,1.0);
#584=CARTESIAN_POINT('',(-0.28125,3.44431912260193E-17,0.0));
#585=CARTESIAN_POINT('',(-0.28125,3.44431912260193E-17,0.0));
#586=VECTOR('',#646,1.0);
#587=AXIS2_PLACEMENT_3D('',#647,#648,#649);
#588=COLOUR_RGB('',0.156862750649452,0.549019634723663,0.941176474094391);
#589=AXIS2_PLACEMENT_3D('',#650,#651,#652);
#590=COLOUR_RGB('',0.156862750649452,0.549019634723663,0.941176474094391);
#591=AXIS2_PLACEMENT_3D('',#653,#654,#655);
#592=COLOUR_RGB('',0.156862750649452,0.549019634723663,0.941176474094391);
#593=CARTESIAN_POINT('',(2.6875,-1.75,0.0));
#594=VECTOR('',#656,1.0);
#595=COLOUR_RGB('',0.156862750649452,0.549019634723663,0.941176474094391);
#596=AXIS2_PLACEMENT_3D('',#657,#658,#659);
#597=COLOUR_RGB('',0.156862750649452,0.549019634723663,0.941176474094391);
#598=CARTESIAN_POINT('',(1.0625,1.75,0.0));
#599=VECTOR('',#660,1.0);
#600=COLOUR_RGB('',0.156862750649452,0.549019634723663,0.941176474094391);
#601=DIRECTION('',(-0.0,-0.0,1.0));
#602=CARTESIAN_POINT('',(1.875,0.9375,0.25));
#603=DIRECTION('',(0.0,0.0,1.0));
#604=DIRECTION('',(1.0,0.0,0.0));
#605=DIRECTION('',(-0.0,0.0,-1.0));
#606=CARTESIAN_POINT('',(1.875,0.9375,0.0));
#607=DIRECTION('',(0.0,0.0,1.0));
#608=DIRECTION('',(1.0,0.0,-0.0));
#609=DIRECTION('',(-0.0,-0.0,1.0));
#610=CARTESIAN_POINT('',(1.875,-0.9375,0.0));
#611=DIRECTION('',(0.0,0.0,1.0));
#612=DIRECTION('',(1.0,0.0,-0.0));
#613=DIRECTION('',(-0.0,0.0,-1.0));
#614=CARTESIAN_POINT('',(1.875,-0.9375,0.25));
#615=DIRECTION('',(0.0,0.0,1.0));
#616=DIRECTION('',(1.0,0.0,0.0));
#617=DIRECTION('',(-1.26882631385732E-16,-1.0,0.0));
#618=DIRECTION('',(0.0,0.0,1.0));
#619=DIRECTION('',(-1.26882631385732E-16,-1.0,0.0));
#620=DIRECTION('',(0.0,0.0,1.0));
#621=DIRECTION('',(0.894427190999916,0.447213595499958,0.0));
#622=DIRECTION('',(0.0,0.0,1.0));
#623=DIRECTION('',(0.894427190999916,0.447213595499958,0.0));
#624=DIRECTION('',(0.0,0.0,1.0));
#625=CARTESIAN_POINT('',(1.875,-0.9375,0.25));
#626=DIRECTION('',(0.0,0.0,1.0));
#627=DIRECTION('',(1.0,0.0,0.0));
#628=CARTESIAN_POINT('',(0.0,0.0,0.25));
#629=DIRECTION('',(0.0,0.0,1.0));
#630=DIRECTION('',(1.0,0.0,0.0));
#631=CARTESIAN_POINT('',(0.0,0.0,0.25));
#632=DIRECTION('',(0.0,0.0,1.0));
#633=DIRECTION('',(1.0,0.0,0.0));
#634=CARTESIAN_POINT('',(1.875,0.9375,0.25));
#635=DIRECTION('',(0.0,0.0,1.0));
#636=DIRECTION('',(1.0,0.0,0.0));
#637=DIRECTION('',(-1.0,2.73285667600039E-16,0.0));
#638=DIRECTION('',(1.0,-5.46571335200077E-16,0.0));
#639=DIRECTION('',(2.73285667600039E-16,1.0,0.0));
#640=DIRECTION('',(-0.894427190999916,0.447213595499958,0.0));
#641=DIRECTION('',(2.73285667600039E-16,1.0,0.0));
#642=DIRECTION('',(0.0,0.0,1.0));
#643=DIRECTION('',(-0.894427190999916,0.447213595499958,0.0));
#644=DIRECTION('',(0.0,0.0,1.0));
#645=DIRECTION('',(-0.0,0.0,1.0));
#646=DIRECTION('',(-0.0,0.0,-1.0));
#647=CARTESIAN_POINT('',(0.0,0.0,0.0));
#648=DIRECTION('',(0.0,0.0,1.0));
#649=DIRECTION('',(1.0,0.0,-0.0));
#650=CARTESIAN_POINT('',(0.0,0.0,0.0));
#651=DIRECTION('',(0.0,0.0,1.0));
#652=DIRECTION('',(1.0,0.0,-0.0));
#653=CARTESIAN_POINT('',(1.875,0.9375,0.0));
#654=DIRECTION('',(0.0,0.0,1.0));
#655=DIRECTION('',(1.0,0.0,-0.0));
#656=DIRECTION('',(-1.0,2.73285667600039E-16,0.0));
#657=CARTESIAN_POINT('',(1.875,-0.9375,0.0));
#658=DIRECTION('',(0.0,0.0,1.0));
#659=DIRECTION('',(1.0,0.0,-0.0));
#660=DIRECTION('',(1.0,-5.46571335200077E-16,0.0));
ENDSEC;
END-ISO-10303-21;
