ISO-10303-21;
HEADER;
FILE_DESCRIPTION(('TurboCAD Mac Pro'),'Build 980');
FILE_NAME('P1036.stp','  ',(''),(''),'ACIS Interop','IMSI','TurboCAD Mac Pro BY IMSI, INCORPORATED');
FILE_SCHEMA(('automotive_design'));
ENDSEC;
DATA;
#1=MECHANICAL_DESIGN_GEOMETRIC_PRESENTATION_REPRESENTATION(' ',(#10,#11,#12,#13,#14,#15,#16,#17,#18,#19,#20,#21,#22,#23,#24),#6);
#2=PRODUCT_DEFINITION_CONTEXT('',#25,'design');
#3=APPLICATION_PROTOCOL_DEFINITION('INTERNATIONAL STANDARD','automotive_design',1994,#25);
#4=PRODUCT_CATEGORY_RELATIONSHIP('NONE','NONE',#26,#27);
#5=SHAPE_DEFINITION_REPRESENTATION(#28,#29);
#6= (GEOMETRIC_REPRESENTATION_CONTEXT(3)GLOBAL_UNCERTAINTY_ASSIGNED_CONTEXT((#32))GLOBAL_UNIT_ASSIGNED_CONTEXT((#34,#35,#36))REPRESENTATION_CONTEXT('NONE','WORKSPACE'));
#10=STYLED_ITEM('',(#38),#39);
#11=STYLED_ITEM('',(#40),#41);
#12=STYLED_ITEM('',(#42),#43);
#13=STYLED_ITEM('',(#44),#45);
#14=STYLED_ITEM('',(#46),#47);
#15=STYLED_ITEM('',(#48),#49);
#16=STYLED_ITEM('',(#50),#51);
#17=STYLED_ITEM('',(#52),#53);
#18=STYLED_ITEM('',(#54),#55);
#19=STYLED_ITEM('',(#56),#57);
#20=STYLED_ITEM('',(#58),#59);
#21=STYLED_ITEM('',(#60),#61);
#22=STYLED_ITEM('',(#62),#63);
#23=STYLED_ITEM('',(#64),#65);
#24=STYLED_ITEM('',(#66),#67);
#25=APPLICATION_CONTEXT(' ');
#26=PRODUCT_CATEGORY('part','NONE');
#27=PRODUCT_RELATED_PRODUCT_CATEGORY('detail',' ',(#68));
#28=PRODUCT_DEFINITION_SHAPE('NONE','NONE',#69);
#29=ADVANCED_BREP_SHAPE_REPRESENTATION('1',(#65,#70),#6);
#32=UNCERTAINTY_MEASURE_WITH_UNIT(LENGTH_MEASURE(1.0E-06),#34,'','');
#34= (CONVERSION_BASED_UNIT('INCH',#73)LENGTH_UNIT()NAMED_UNIT(#76));
#35= (NAMED_UNIT(#78)PLANE_ANGLE_UNIT()SI_UNIT($,.RADIAN.));
#36= (NAMED_UNIT(#78)SOLID_ANGLE_UNIT()SI_UNIT($,.STERADIAN.));
#38=PRESENTATION_STYLE_ASSIGNMENT((#84));
#39=ADVANCED_FACE('',(#85),#86,.T.);
#40=PRESENTATION_STYLE_ASSIGNMENT((#87));
#41=ADVANCED_FACE('',(#88),#89,.T.);
#42=PRESENTATION_STYLE_ASSIGNMENT((#90));
#43=ADVANCED_FACE('',(#91,#92,#93,#94),#95,.T.);
#44=PRESENTATION_STYLE_ASSIGNMENT((#96));
#45=ADVANCED_FACE('',(#97),#98,.T.);
#46=PRESENTATION_STYLE_ASSIGNMENT((#99));
#47=ADVANCED_FACE('',(#100),#101,.F.);
#48=PRESENTATION_STYLE_ASSIGNMENT((#102));
#49=ADVANCED_FACE('',(#103),#104,.F.);
#50=PRESENTATION_STYLE_ASSIGNMENT((#105));
#51=ADVANCED_FACE('',(#106,#107,#108,#109),#110,.F.);
#52=PRESENTATION_STYLE_ASSIGNMENT((#111));
#53=ADVANCED_FACE('',(#112),#113,.T.);
#54=PRESENTATION_STYLE_ASSIGNMENT((#114));
#55=ADVANCED_FACE('',(#115),#116,.F.);
#56=PRESENTATION_STYLE_ASSIGNMENT((#117));
#57=ADVANCED_FACE('',(#118),#119,.F.);
#58=PRESENTATION_STYLE_ASSIGNMENT((#120));
#59=ADVANCED_FACE('',(#121),#122,.F.);
#60=PRESENTATION_STYLE_ASSIGNMENT((#123));
#61=ADVANCED_FACE('',(#124),#125,.T.);
#62=PRESENTATION_STYLE_ASSIGNMENT((#126));
#63=ADVANCED_FACE('',(#127),#128,.F.);
#64=PRESENTATION_STYLE_ASSIGNMENT((#129));
#65=MANIFOLD_SOLID_BREP('1',#130);
#66=PRESENTATION_STYLE_ASSIGNMENT((#131));
#67=ADVANCED_FACE('',(#132),#133,.T.);
#68=PRODUCT('1','1','PART-1-DESC',(#134));
#69=PRODUCT_DEFINITION('NONE','NONE',#135,#2);
#70=AXIS2_PLACEMENT_3D('',#136,#137,#138);
#73=LENGTH_MEASURE_WITH_UNIT(LENGTH_MEASURE(25.4),#139);
#76=DIMENSIONAL_EXPONENTS(1.0,0.0,0.0,0.0,0.0,0.0,0.0);
#78=DIMENSIONAL_EXPONENTS(0.0,0.0,0.0,0.0,0.0,0.0,0.0);
#84=SURFACE_STYLE_USAGE(.BOTH.,#140);
#85=FACE_OUTER_BOUND('',#141,.T.);
#86=PLANE('',#142);
#87=SURFACE_STYLE_USAGE(.BOTH.,#143);
#88=FACE_OUTER_BOUND('',#144,.T.);
#89=PLANE('',#145);
#90=SURFACE_STYLE_USAGE(.BOTH.,#146);
#91=FACE_BOUND('',#147,.T.);
#92=FACE_BOUND('',#148,.T.);
#93=FACE_BOUND('',#149,.T.);
#94=FACE_OUTER_BOUND('',#150,.T.);
#95=PLANE('',#151);
#96=SURFACE_STYLE_USAGE(.BOTH.,#152);
#97=FACE_OUTER_BOUND('',#153,.T.);
#98=PLANE('',#154);
#99=SURFACE_STYLE_USAGE(.BOTH.,#155);
#100=FACE_OUTER_BOUND('',#156,.T.);
#101=CYLINDRICAL_SURFACE('',#157,0.275590551181102);
#102=SURFACE_STYLE_USAGE(.BOTH.,#158);
#103=FACE_OUTER_BOUND('',#159,.T.);
#104=CYLINDRICAL_SURFACE('',#160,0.275590551181102);
#105=SURFACE_STYLE_USAGE(.BOTH.,#161);
#106=FACE_BOUND('',#162,.T.);
#107=FACE_BOUND('',#163,.T.);
#108=FACE_BOUND('',#164,.T.);
#109=FACE_OUTER_BOUND('',#165,.T.);
#110=PLANE('',#166);
#111=SURFACE_STYLE_USAGE(.BOTH.,#167);
#112=FACE_OUTER_BOUND('',#168,.T.);
#113=PLANE('',#169);
#114=SURFACE_STYLE_USAGE(.BOTH.,#170);
#115=FACE_OUTER_BOUND('',#171,.T.);
#116=CYLINDRICAL_SURFACE('',#172,0.275590551181102);
#117=SURFACE_STYLE_USAGE(.BOTH.,#173);
#118=FACE_OUTER_BOUND('',#174,.T.);
#119=CYLINDRICAL_SURFACE('',#175,0.275590551181102);
#120=SURFACE_STYLE_USAGE(.BOTH.,#176);
#121=FACE_OUTER_BOUND('',#177,.T.);
#122=CYLINDRICAL_SURFACE('',#178,0.275590551181102);
#123=SURFACE_STYLE_USAGE(.BOTH.,#179);
#124=FACE_OUTER_BOUND('',#180,.T.);
#125=PLANE('',#181);
#126=SURFACE_STYLE_USAGE(.BOTH.,#182);
#127=FACE_OUTER_BOUND('',#183,.T.);
#128=CYLINDRICAL_SURFACE('',#184,0.275590551181102);
#129=SURFACE_STYLE_USAGE(.BOTH.,#185);
#130=CLOSED_SHELL('',(#63,#47,#55,#57,#49,#59,#61,#45,#39,#53,#67,#41,#43,#51));
#131=SURFACE_STYLE_USAGE(.BOTH.,#186);
#132=FACE_OUTER_BOUND('',#187,.T.);
#133=PLANE('',#188);
#134=PRODUCT_CONTEXT('',#25,'mechanical');
#135=PRODUCT_DEFINITION_FORMATION_WITH_SPECIFIED_SOURCE(' ','NONE',#68,.NOT_KNOWN.);
#136=CARTESIAN_POINT('',(0.0,0.0,0.0));
#137=DIRECTION('',(0.0,0.0,1.0));
#138=DIRECTION('',(1.0,0.0,0.0));
#139= (NAMED_UNIT(#76)LENGTH_UNIT()SI_UNIT(.MILLI.,.METRE.));
#140=SURFACE_SIDE_STYLE('',(#190));
#141=EDGE_LOOP('',(#191,#192,#193,#194));
#142=AXIS2_PLACEMENT_3D('',#195,#196,#197);
#143=SURFACE_SIDE_STYLE('',(#198));
#144=EDGE_LOOP('',(#199,#200,#201,#202));
#145=AXIS2_PLACEMENT_3D('',#203,#204,#205);
#146=SURFACE_SIDE_STYLE('',(#206));
#147=EDGE_LOOP('',(#207,#208));
#148=EDGE_LOOP('',(#209,#210));
#149=EDGE_LOOP('',(#211,#212));
#150=EDGE_LOOP('',(#213,#214,#215,#216,#217,#218));
#151=AXIS2_PLACEMENT_3D('',#219,#220,#221);
#152=SURFACE_SIDE_STYLE('',(#222));
#153=EDGE_LOOP('',(#223,#224,#225,#226));
#154=AXIS2_PLACEMENT_3D('',#227,#228,#229);
#155=SURFACE_SIDE_STYLE('',(#230));
#156=EDGE_LOOP('',(#231,#232,#233,#234));
#157=AXIS2_PLACEMENT_3D('',#235,#236,#237);
#158=SURFACE_SIDE_STYLE('',(#238));
#159=EDGE_LOOP('',(#239,#240,#241,#242));
#160=AXIS2_PLACEMENT_3D('',#243,#244,#245);
#161=SURFACE_SIDE_STYLE('',(#246));
#162=EDGE_LOOP('',(#247,#248));
#163=EDGE_LOOP('',(#249,#250));
#164=EDGE_LOOP('',(#251,#252));
#165=EDGE_LOOP('',(#253,#254,#255,#256,#257,#258));
#166=AXIS2_PLACEMENT_3D('',#259,#260,#261);
#167=SURFACE_SIDE_STYLE('',(#262));
#168=EDGE_LOOP('',(#263,#264,#265,#266));
#169=AXIS2_PLACEMENT_3D('',#267,#268,#269);
#170=SURFACE_SIDE_STYLE('',(#270));
#171=EDGE_LOOP('',(#271,#272,#273,#274));
#172=AXIS2_PLACEMENT_3D('',#275,#276,#277);
#173=SURFACE_SIDE_STYLE('',(#278));
#174=EDGE_LOOP('',(#279,#280,#281,#282));
#175=AXIS2_PLACEMENT_3D('',#283,#284,#285);
#176=SURFACE_SIDE_STYLE('',(#286));
#177=EDGE_LOOP('',(#287,#288,#289,#290));
#178=AXIS2_PLACEMENT_3D('',#291,#292,#293);
#179=SURFACE_SIDE_STYLE('',(#294));
#180=EDGE_LOOP('',(#295,#296,#297,#298));
#181=AXIS2_PLACEMENT_3D('',#299,#300,#301);
#182=SURFACE_SIDE_STYLE('',(#302));
#183=EDGE_LOOP('',(#303,#304,#305,#306));
#184=AXIS2_PLACEMENT_3D('',#307,#308,#309);
#185=SURFACE_SIDE_STYLE('',(#310));
#186=SURFACE_SIDE_STYLE('',(#311));
#187=EDGE_LOOP('',(#312,#313,#314,#315));
#188=AXIS2_PLACEMENT_3D('',#316,#317,#318);
#190=SURFACE_STYLE_FILL_AREA(#319);
#191=ORIENTED_EDGE('',*,*,#320,.T.);
#192=ORIENTED_EDGE('',*,*,#321,.F.);
#193=ORIENTED_EDGE('',*,*,#322,.F.);
#194=ORIENTED_EDGE('',*,*,#323,.T.);
#195=CARTESIAN_POINT('',(-1.57480314960631,-3.54330708661414,0.236220472440941));
#196=DIRECTION('',(-1.22460635382238E-16,-1.0,8.99815534876475E-32));
#197=DIRECTION('',(-8.0491169285324E-16,8.58844384575289E-33,-1.0));
#198=SURFACE_STYLE_FILL_AREA(#324);
#199=ORIENTED_EDGE('',*,*,#325,.T.);
#200=ORIENTED_EDGE('',*,*,#326,.F.);
#201=ORIENTED_EDGE('',*,*,#327,.F.);
#202=ORIENTED_EDGE('',*,*,#328,.T.);
#203=CARTESIAN_POINT('',(-3.54330708661418,2.51767111096098E-14,0.236220472440942));
#204=DIRECTION('',(-1.0,1.10933564796705E-31,8.04911692853239E-16));
#205=DIRECTION('',(-8.04911692853239E-16,8.58844384575287E-33,-1.0));
#206=SURFACE_STYLE_FILL_AREA(#329);
#207=ORIENTED_EDGE('',*,*,#330,.T.);
#208=ORIENTED_EDGE('',*,*,#331,.T.);
#209=ORIENTED_EDGE('',*,*,#332,.T.);
#210=ORIENTED_EDGE('',*,*,#333,.T.);
#211=ORIENTED_EDGE('',*,*,#334,.T.);
#212=ORIENTED_EDGE('',*,*,#335,.T.);
#213=ORIENTED_EDGE('',*,*,#336,.F.);
#214=ORIENTED_EDGE('',*,*,#325,.F.);
#215=ORIENTED_EDGE('',*,*,#337,.F.);
#216=ORIENTED_EDGE('',*,*,#338,.F.);
#217=ORIENTED_EDGE('',*,*,#320,.F.);
#218=ORIENTED_EDGE('',*,*,#339,.F.);
#219=CARTESIAN_POINT('',(-2.75590551181103,-0.787401574803124,-3.21265324054917E-15));
#220=DIRECTION('',(-8.04911692853239E-16,8.58844384575287E-33,-1.0));
#221=DIRECTION('',(1.0,-1.10933564796705E-31,-8.04911692853239E-16));
#222=SURFACE_STYLE_FILL_AREA(#340);
#223=ORIENTED_EDGE('',*,*,#339,.T.);
#224=ORIENTED_EDGE('',*,*,#323,.F.);
#225=ORIENTED_EDGE('',*,*,#341,.F.);
#226=ORIENTED_EDGE('',*,*,#342,.T.);
#227=CARTESIAN_POINT('',(-1.57480314960631,-1.57480314960627,0.236220472440941));
#228=DIRECTION('',(-1.0,1.22460635382238E-16,8.04911692853239E-16));
#229=DIRECTION('',(-8.04911692853239E-16,8.58844384575285E-33,-1.0));
#230=SURFACE_STYLE_FILL_AREA(#343);
#231=ORIENTED_EDGE('',*,*,#344,.F.);
#232=ORIENTED_EDGE('',*,*,#345,.F.);
#233=ORIENTED_EDGE('',*,*,#346,.F.);
#234=ORIENTED_EDGE('',*,*,#332,.F.);
#235=CARTESIAN_POINT('',(-0.787401574803151,-0.787401574803124,5.01655761769967));
#236=DIRECTION('',(-8.04911692853239E-16,8.58844384575287E-33,-1.0));
#237=DIRECTION('',(1.0,-1.10933564796705E-31,-8.04911692853239E-16));
#238=SURFACE_STYLE_FILL_AREA(#347);
#239=ORIENTED_EDGE('',*,*,#344,.T.);
#240=ORIENTED_EDGE('',*,*,#333,.F.);
#241=ORIENTED_EDGE('',*,*,#346,.T.);
#242=ORIENTED_EDGE('',*,*,#348,.F.);
#243=CARTESIAN_POINT('',(-0.787401574803151,-0.787401574803124,5.01655761769967));
#244=DIRECTION('',(-8.04911692853239E-16,8.58844384575287E-33,-1.0));
#245=DIRECTION('',(1.0,-1.10933564796705E-31,-8.04911692853239E-16));
#246=SURFACE_STYLE_FILL_AREA(#349);
#247=ORIENTED_EDGE('',*,*,#350,.T.);
#248=ORIENTED_EDGE('',*,*,#351,.T.);
#249=ORIENTED_EDGE('',*,*,#345,.T.);
#250=ORIENTED_EDGE('',*,*,#348,.T.);
#251=ORIENTED_EDGE('',*,*,#352,.T.);
#252=ORIENTED_EDGE('',*,*,#353,.T.);
#253=ORIENTED_EDGE('',*,*,#327,.T.);
#254=ORIENTED_EDGE('',*,*,#354,.T.);
#255=ORIENTED_EDGE('',*,*,#341,.T.);
#256=ORIENTED_EDGE('',*,*,#322,.T.);
#257=ORIENTED_EDGE('',*,*,#355,.T.);
#258=ORIENTED_EDGE('',*,*,#356,.T.);
#259=CARTESIAN_POINT('',(-1.49825021872267,-1.49825021872263,0.236220472440941));
#260=DIRECTION('',(-8.04911692853239E-16,8.58844384575287E-33,-1.0));
#261=DIRECTION('',(1.0,-1.10933564796705E-31,-8.04911692853239E-16));
#262=SURFACE_STYLE_FILL_AREA(#357);
#263=ORIENTED_EDGE('',*,*,#338,.T.);
#264=ORIENTED_EDGE('',*,*,#358,.F.);
#265=ORIENTED_EDGE('',*,*,#355,.F.);
#266=ORIENTED_EDGE('',*,*,#321,.T.);
#267=CARTESIAN_POINT('',(-5.59482469102441E-15,-1.57480314960627,0.236220472440939));
#268=DIRECTION('',(1.0,-1.10933564796705E-31,-8.04911692853239E-16));
#269=DIRECTION('',(8.04911692853239E-16,-8.58844384575287E-33,1.0));
#270=SURFACE_STYLE_FILL_AREA(#359);
#271=ORIENTED_EDGE('',*,*,#360,.F.);
#272=ORIENTED_EDGE('',*,*,#350,.F.);
#273=ORIENTED_EDGE('',*,*,#361,.F.);
#274=ORIENTED_EDGE('',*,*,#330,.F.);
#275=CARTESIAN_POINT('',(-0.787401574803151,-2.755905511811,5.01655761769967));
#276=DIRECTION('',(-8.04911692853239E-16,8.58844384575287E-33,-1.0));
#277=DIRECTION('',(1.0,-1.10933564796705E-31,-8.04911692853239E-16));
#278=SURFACE_STYLE_FILL_AREA(#362);
#279=ORIENTED_EDGE('',*,*,#360,.T.);
#280=ORIENTED_EDGE('',*,*,#331,.F.);
#281=ORIENTED_EDGE('',*,*,#361,.T.);
#282=ORIENTED_EDGE('',*,*,#351,.F.);
#283=CARTESIAN_POINT('',(-0.787401574803151,-2.755905511811,5.01655761769967));
#284=DIRECTION('',(-8.04911692853239E-16,8.58844384575287E-33,-1.0));
#285=DIRECTION('',(1.0,-1.10933564796705E-31,-8.04911692853239E-16));
#286=SURFACE_STYLE_FILL_AREA(#363);
#287=ORIENTED_EDGE('',*,*,#364,.T.);
#288=ORIENTED_EDGE('',*,*,#335,.F.);
#289=ORIENTED_EDGE('',*,*,#365,.T.);
#290=ORIENTED_EDGE('',*,*,#353,.F.);
#291=CARTESIAN_POINT('',(-2.75590551181102,-0.787401574803124,5.01655761769968));
#292=DIRECTION('',(-8.04911692853239E-16,8.58844384575287E-33,-1.0));
#293=DIRECTION('',(1.0,-1.10933564796705E-31,-8.04911692853239E-16));
#294=SURFACE_STYLE_FILL_AREA(#366);
#295=ORIENTED_EDGE('',*,*,#336,.T.);
#296=ORIENTED_EDGE('',*,*,#342,.F.);
#297=ORIENTED_EDGE('',*,*,#354,.F.);
#298=ORIENTED_EDGE('',*,*,#326,.T.);
#299=CARTESIAN_POINT('',(-3.54330708661418,-1.57480314960627,0.236220472440942));
#300=DIRECTION('',(-1.22460635382238E-16,-1.0,8.99815534876475E-32));
#301=DIRECTION('',(-8.0491169285324E-16,8.58844384575289E-33,-1.0));
#302=SURFACE_STYLE_FILL_AREA(#367);
#303=ORIENTED_EDGE('',*,*,#364,.F.);
#304=ORIENTED_EDGE('',*,*,#352,.F.);
#305=ORIENTED_EDGE('',*,*,#365,.F.);
#306=ORIENTED_EDGE('',*,*,#334,.F.);
#307=CARTESIAN_POINT('',(-2.75590551181102,-0.787401574803124,5.01655761769968));
#308=DIRECTION('',(-8.04911692853239E-16,8.58844384575287E-33,-1.0));
#309=DIRECTION('',(1.0,-1.10933564796705E-31,-8.04911692853239E-16));
#310=SURFACE_STYLE_FILL_AREA(#368);
#311=SURFACE_STYLE_FILL_AREA(#369);
#312=ORIENTED_EDGE('',*,*,#337,.T.);
#313=ORIENTED_EDGE('',*,*,#328,.F.);
#314=ORIENTED_EDGE('',*,*,#356,.F.);
#315=ORIENTED_EDGE('',*,*,#358,.T.);
#316=CARTESIAN_POINT('',(-5.59482469102441E-15,2.51767111096098E-14,0.236220472440939));
#317=DIRECTION('',(9.86076131526265E-32,1.0,8.58844384575279E-33));
#318=DIRECTION('',(8.0491169285324E-16,-8.58844384575287E-33,1.0));
#319=FILL_AREA_STYLE('',(#370));
#320=EDGE_CURVE('',#371,#372,#373,.T.);
#321=EDGE_CURVE('',#374,#372,#375,.T.);
#322=EDGE_CURVE('',#376,#374,#377,.T.);
#323=EDGE_CURVE('',#376,#371,#378,.T.);
#324=FILL_AREA_STYLE('',(#379));
#325=EDGE_CURVE('',#380,#381,#382,.T.);
#326=EDGE_CURVE('',#383,#381,#384,.T.);
#327=EDGE_CURVE('',#385,#383,#386,.T.);
#328=EDGE_CURVE('',#385,#380,#387,.T.);
#329=FILL_AREA_STYLE('',(#388));
#330=EDGE_CURVE('',#389,#390,#391,.T.);
#331=EDGE_CURVE('',#390,#389,#392,.T.);
#332=EDGE_CURVE('',#393,#394,#395,.T.);
#333=EDGE_CURVE('',#394,#393,#396,.T.);
#334=EDGE_CURVE('',#397,#398,#399,.T.);
#335=EDGE_CURVE('',#398,#397,#400,.T.);
#336=EDGE_CURVE('',#381,#401,#402,.T.);
#337=EDGE_CURVE('',#403,#380,#404,.T.);
#338=EDGE_CURVE('',#372,#403,#405,.T.);
#339=EDGE_CURVE('',#401,#371,#406,.T.);
#340=FILL_AREA_STYLE('',(#407));
#341=EDGE_CURVE('',#408,#376,#409,.T.);
#342=EDGE_CURVE('',#408,#401,#410,.T.);
#343=FILL_AREA_STYLE('',(#411));
#344=EDGE_CURVE('',#412,#393,#413,.T.);
#345=EDGE_CURVE('',#414,#412,#415,.T.);
#346=EDGE_CURVE('',#394,#414,#416,.T.);
#347=FILL_AREA_STYLE('',(#417));
#348=EDGE_CURVE('',#412,#414,#418,.T.);
#349=FILL_AREA_STYLE('',(#419));
#350=EDGE_CURVE('',#420,#421,#422,.T.);
#351=EDGE_CURVE('',#421,#420,#423,.T.);
#352=EDGE_CURVE('',#424,#425,#426,.T.);
#353=EDGE_CURVE('',#425,#424,#427,.T.);
#354=EDGE_CURVE('',#383,#408,#428,.T.);
#355=EDGE_CURVE('',#374,#429,#430,.T.);
#356=EDGE_CURVE('',#429,#385,#431,.T.);
#357=FILL_AREA_STYLE('',(#432));
#358=EDGE_CURVE('',#429,#403,#433,.T.);
#359=FILL_AREA_STYLE('',(#434));
#360=EDGE_CURVE('',#421,#389,#435,.T.);
#361=EDGE_CURVE('',#390,#420,#436,.T.);
#362=FILL_AREA_STYLE('',(#437));
#363=FILL_AREA_STYLE('',(#438));
#364=EDGE_CURVE('',#425,#397,#439,.T.);
#365=EDGE_CURVE('',#398,#424,#440,.T.);
#366=FILL_AREA_STYLE('',(#441));
#367=FILL_AREA_STYLE('',(#442));
#368=FILL_AREA_STYLE('',(#443));
#369=FILL_AREA_STYLE('',(#444));
#370=FILL_AREA_STYLE_COLOUR('',#445);
#371=VERTEX_POINT('',#446);
#372=VERTEX_POINT('',#447);
#373=LINE('',#448,#449);
#374=VERTEX_POINT('',#450);
#375=LINE('',#451,#452);
#376=VERTEX_POINT('',#453);
#377=LINE('',#454,#455);
#378=LINE('',#456,#457);
#379=FILL_AREA_STYLE_COLOUR('',#458);
#380=VERTEX_POINT('',#459);
#381=VERTEX_POINT('',#460);
#382=LINE('',#461,#462);
#383=VERTEX_POINT('',#463);
#384=LINE('',#464,#465);
#385=VERTEX_POINT('',#466);
#386=LINE('',#467,#468);
#387=LINE('',#469,#470);
#388=FILL_AREA_STYLE_COLOUR('',#471);
#389=VERTEX_POINT('',#472);
#390=VERTEX_POINT('',#473);
#391=CIRCLE('',#474,0.275590551181102);
#392=CIRCLE('',#475,0.275590551181102);
#393=VERTEX_POINT('',#476);
#394=VERTEX_POINT('',#477);
#395=CIRCLE('',#478,0.275590551181102);
#396=CIRCLE('',#479,0.275590551181102);
#397=VERTEX_POINT('',#480);
#398=VERTEX_POINT('',#481);
#399=CIRCLE('',#482,0.275590551181102);
#400=CIRCLE('',#483,0.275590551181102);
#401=VERTEX_POINT('',#484);
#402=LINE('',#485,#486);
#403=VERTEX_POINT('',#487);
#404=LINE('',#488,#489);
#405=LINE('',#490,#491);
#406=LINE('',#492,#493);
#407=FILL_AREA_STYLE_COLOUR('',#494);
#408=VERTEX_POINT('',#495);
#409=LINE('',#496,#497);
#410=LINE('',#498,#499);
#411=FILL_AREA_STYLE_COLOUR('',#500);
#412=VERTEX_POINT('',#501);
#413=LINE('',#502,#503);
#414=VERTEX_POINT('',#504);
#415=CIRCLE('',#505,0.275590551181102);
#416=LINE('',#506,#507);
#417=FILL_AREA_STYLE_COLOUR('',#508);
#418=CIRCLE('',#509,0.275590551181102);
#419=FILL_AREA_STYLE_COLOUR('',#510);
#420=VERTEX_POINT('',#511);
#421=VERTEX_POINT('',#512);
#422=CIRCLE('',#513,0.275590551181102);
#423=CIRCLE('',#514,0.275590551181102);
#424=VERTEX_POINT('',#515);
#425=VERTEX_POINT('',#516);
#426=CIRCLE('',#517,0.275590551181102);
#427=CIRCLE('',#518,0.275590551181102);
#428=LINE('',#519,#520);
#429=VERTEX_POINT('',#521);
#430=LINE('',#522,#523);
#431=LINE('',#524,#525);
#432=FILL_AREA_STYLE_COLOUR('',#526);
#433=LINE('',#527,#528);
#434=FILL_AREA_STYLE_COLOUR('',#529);
#435=LINE('',#530,#531);
#436=LINE('',#532,#533);
#437=FILL_AREA_STYLE_COLOUR('',#534);
#438=FILL_AREA_STYLE_COLOUR('',#535);
#439=LINE('',#536,#537);
#440=LINE('',#538,#539);
#441=FILL_AREA_STYLE_COLOUR('',#540);
#442=FILL_AREA_STYLE_COLOUR('',#541);
#443=FILL_AREA_STYLE_COLOUR('',#542);
#444=FILL_AREA_STYLE_COLOUR('',#543);
#445=COLOUR_RGB('',0.0,1.0,0.0);
#446=CARTESIAN_POINT('',(-1.57480314960631,-3.54330708661414,-4.13055416642037E-15));
#447=CARTESIAN_POINT('',(-5.59482469102441E-15,-3.54330708661415,-5.39813163548058E-15));
#448=CARTESIAN_POINT('',(-0.590994521498358,-3.54330708661415,-4.91732638859567E-15));
#449=VECTOR('',#544,0.0393700787401575);
#450=CARTESIAN_POINT('',(-5.59482469102441E-15,-3.54330708661415,0.236220472440939));
#451=CARTESIAN_POINT('',(-5.59482469102441E-15,-3.54330708661415,0.236220472440939));
#452=VECTOR('',#545,0.0393700787401575);
#453=CARTESIAN_POINT('',(-1.57480314960631,-3.54330708661414,0.236220472440941));
#454=CARTESIAN_POINT('',(-0.590994521498358,-3.54330708661415,0.23622047244094));
#455=VECTOR('',#546,0.0393700787401575);
#456=CARTESIAN_POINT('',(-1.57480314960631,-3.54330708661414,0.236220472440941));
#457=VECTOR('',#547,0.0393700787401575);
#458=COLOUR_RGB('',0.0,1.0,0.0);
#459=CARTESIAN_POINT('',(-3.54330708661418,2.51767111096098E-14,-2.53515493812044E-15));
#460=CARTESIAN_POINT('',(-3.54330708661418,-1.57480314960627,-2.53515493812044E-15));
#461=CARTESIAN_POINT('',(-3.54330708661418,-0.867903160326631,-2.53515493812044E-15));
#462=VECTOR('',#548,0.0393700787401575);
#463=CARTESIAN_POINT('',(-3.54330708661418,-1.57480314960627,0.236220472440942));
#464=CARTESIAN_POINT('',(-3.54330708661418,-1.57480314960627,0.236220472440942));
#465=VECTOR('',#549,0.0393700787401575);
#466=CARTESIAN_POINT('',(-3.54330708661418,2.51767111096098E-14,0.236220472440942));
#467=CARTESIAN_POINT('',(-3.54330708661418,-0.867903160326631,0.236220472440942));
#468=VECTOR('',#550,0.0393700787401575);
#469=CARTESIAN_POINT('',(-3.54330708661418,2.51767111096098E-14,0.236220472440942));
#470=VECTOR('',#551,0.0393700787401575);
#471=COLOUR_RGB('',0.0,1.0,0.0);
#472=CARTESIAN_POINT('',(-0.511811023622052,-2.755905511811,-4.98289074044362E-15));
#473=CARTESIAN_POINT('',(-1.06299212598426,-2.755905511811,-4.53825516099482E-15));
#474=AXIS2_PLACEMENT_3D('',#552,#553,#554);
#475=AXIS2_PLACEMENT_3D('',#555,#556,#557);
#476=CARTESIAN_POINT('',(-0.511811023622053,-0.787401574803124,-4.98289074044362E-15));
#477=CARTESIAN_POINT('',(-1.06299212598426,-0.787401574803124,-4.53825516099482E-15));
#478=AXIS2_PLACEMENT_3D('',#558,#559,#560);
#479=AXIS2_PLACEMENT_3D('',#561,#562,#563);
#480=CARTESIAN_POINT('',(-2.48031496062993,-0.787401574803124,-3.38749151214369E-15));
#481=CARTESIAN_POINT('',(-3.03149606299213,-0.787401574803124,-2.94230956309616E-15));
#482=AXIS2_PLACEMENT_3D('',#564,#565,#566);
#483=AXIS2_PLACEMENT_3D('',#567,#568,#569);
#484=CARTESIAN_POINT('',(-1.57480314960631,-1.57480314960627,-4.13055416642037E-15));
#485=CARTESIAN_POINT('',(-2.60697794521056,-1.57480314960627,-3.30007237634643E-15));
#486=VECTOR('',#570,0.0393700787401575);
#487=CARTESIAN_POINT('',(-5.59482469102441E-15,2.51767111096098E-14,-5.39813163548058E-15));
#488=CARTESIAN_POINT('',(-0.826771653543313,2.51767111096098E-14,-4.72063333305185E-15));
#489=VECTOR('',#571,0.0393700787401575);
#490=CARTESIAN_POINT('',(-5.59482469102441E-15,-0.951747602582857,-5.39813163548058E-15));
#491=VECTOR('',#572,0.0393700787401575);
#492=CARTESIAN_POINT('',(-1.57480314960631,-2.4785535325867,-4.13055416642037E-15));
#493=VECTOR('',#573,0.0393700787401575);
#494=COLOUR_RGB('',0.0,1.0,0.0);
#495=CARTESIAN_POINT('',(-1.57480314960631,-1.57480314960627,0.236220472440941));
#496=CARTESIAN_POINT('',(-1.57480314960631,-2.4785535325867,0.236220472440941));
#497=VECTOR('',#574,0.0393700787401575);
#498=CARTESIAN_POINT('',(-1.57480314960631,-1.57480314960627,0.236220472440941));
#499=VECTOR('',#575,0.0393700787401575);
#500=COLOUR_RGB('',0.0,1.0,0.0);
#501=CARTESIAN_POINT('',(-0.511811023622053,-0.787401574803124,0.23622047244094));
#502=CARTESIAN_POINT('',(-0.511811023622053,-0.787401574803124,0.118110236220468));
#503=VECTOR('',#576,1.0);
#504=CARTESIAN_POINT('',(-1.06299212598426,-0.787401574803124,0.23622047244094));
#505=AXIS2_PLACEMENT_3D('',#577,#578,#579);
#506=CARTESIAN_POINT('',(-1.06299212598426,-0.787401574803124,0.118110236220468));
#507=VECTOR('',#580,1.0);
#508=COLOUR_RGB('',0.0,1.0,0.0);
#509=AXIS2_PLACEMENT_3D('',#581,#582,#583);
#510=COLOUR_RGB('',0.0,1.0,0.0);
#511=CARTESIAN_POINT('',(-1.06299212598426,-2.755905511811,0.23622047244094));
#512=CARTESIAN_POINT('',(-0.511811023622053,-2.755905511811,0.23622047244094));
#513=AXIS2_PLACEMENT_3D('',#584,#585,#586);
#514=AXIS2_PLACEMENT_3D('',#587,#588,#589);
#515=CARTESIAN_POINT('',(-3.03149606299213,-0.787401574803124,0.236220472440942));
#516=CARTESIAN_POINT('',(-2.48031496062993,-0.787401574803124,0.236220472440942));
#517=AXIS2_PLACEMENT_3D('',#590,#591,#592);
#518=AXIS2_PLACEMENT_3D('',#593,#594,#595);
#519=CARTESIAN_POINT('',(-2.60697794521056,-1.57480314960627,0.236220472440942));
#520=VECTOR('',#596,0.0393700787401575);
#521=CARTESIAN_POINT('',(-5.59482469102441E-15,2.51767111096098E-14,0.236220472440939));
#522=CARTESIAN_POINT('',(-5.59482469102441E-15,-2.39470909033047,0.236220472440939));
#523=VECTOR('',#597,0.0393700787401575);
#524=CARTESIAN_POINT('',(-0.826771653543313,2.51767111096098E-14,0.23622047244094));
#525=VECTOR('',#598,0.0393700787401575);
#526=COLOUR_RGB('',0.0,1.0,0.0);
#527=CARTESIAN_POINT('',(-5.59482469102441E-15,2.51767111096098E-14,0.236220472440939));
#528=VECTOR('',#599,0.0393700787401575);
#529=COLOUR_RGB('',0.0,1.0,0.0);
#530=CARTESIAN_POINT('',(-0.511811023622053,-2.755905511811,0.118110236220468));
#531=VECTOR('',#600,1.0);
#532=CARTESIAN_POINT('',(-1.06299212598426,-2.755905511811,0.118110236220468));
#533=VECTOR('',#601,1.0);
#534=COLOUR_RGB('',0.0,1.0,0.0);
#535=COLOUR_RGB('',0.0,1.0,0.0);
#536=CARTESIAN_POINT('',(-2.48031496062993,-0.787401574803124,0.118110236220469));
#537=VECTOR('',#602,1.0);
#538=CARTESIAN_POINT('',(-3.03149606299213,-0.787401574803124,0.11811023622047));
#539=VECTOR('',#603,1.0);
#540=COLOUR_RGB('',0.0,1.0,0.0);
#541=COLOUR_RGB('',0.0,1.0,0.0);
#542=COLOUR_RGB('',0.0,1.0,0.0);
#543=COLOUR_RGB('',0.0,1.0,0.0);
#544=DIRECTION('',(1.0,-1.22460635382238E-16,-8.0491169285324E-16));
#545=DIRECTION('',(-8.0491169285324E-16,8.58844384575287E-33,-1.0));
#546=DIRECTION('',(1.0,-1.22460635382238E-16,-8.0491169285324E-16));
#547=DIRECTION('',(-8.0491169285324E-16,8.58844384575287E-33,-1.0));
#548=DIRECTION('',(-9.86076131526265E-32,-1.0,-8.58844384575279E-33));
#549=DIRECTION('',(-8.0491169285324E-16,8.58844384575287E-33,-1.0));
#550=DIRECTION('',(-9.86076131526265E-32,-1.0,-8.58844384575279E-33));
#551=DIRECTION('',(-8.0491169285324E-16,8.58844384575287E-33,-1.0));
#552=CARTESIAN_POINT('',(-0.787401574803155,-2.755905511811,-4.76434290095047E-15));
#553=DIRECTION('',(8.04911692853239E-16,-8.58844384575287E-33,1.0));
#554=DIRECTION('',(1.0,-1.10933564796705E-31,-8.04911692853239E-16));
#555=CARTESIAN_POINT('',(-0.787401574803155,-2.755905511811,-4.76434290095047E-15));
#556=DIRECTION('',(8.04911692853239E-16,-8.58844384575287E-33,1.0));
#557=DIRECTION('',(1.0,-1.10933564796705E-31,-8.04911692853239E-16));
#558=CARTESIAN_POINT('',(-0.787401574803155,-0.787401574803124,-4.76434290095047E-15));
#559=DIRECTION('',(8.04911692853239E-16,-8.58844384575287E-33,1.0));
#560=DIRECTION('',(1.0,-1.10933564796705E-31,-8.04911692853239E-16));
#561=CARTESIAN_POINT('',(-0.787401574803155,-0.787401574803124,-4.76434290095047E-15));
#562=DIRECTION('',(8.04911692853239E-16,-8.58844384575287E-33,1.0));
#563=DIRECTION('',(1.0,-1.10933564796705E-31,-8.04911692853239E-16));
#564=CARTESIAN_POINT('',(-2.75590551181103,-0.787401574803124,-3.16894367265055E-15));
#565=DIRECTION('',(8.04911692853239E-16,-8.58844384575287E-33,1.0));
#566=DIRECTION('',(1.0,-1.10933564796705E-31,-8.04911692853239E-16));
#567=CARTESIAN_POINT('',(-2.75590551181103,-0.787401574803124,-3.16894367265055E-15));
#568=DIRECTION('',(8.04911692853239E-16,-8.58844384575287E-33,1.0));
#569=DIRECTION('',(1.0,-1.10933564796705E-31,-8.04911692853239E-16));
#570=DIRECTION('',(1.0,-1.22460635382238E-16,-8.0491169285324E-16));
#571=DIRECTION('',(-1.0,1.10933564796705E-31,8.0491169285324E-16));
#572=DIRECTION('',(9.86076131526265E-32,1.0,8.58844384575279E-33));
#573=DIRECTION('',(-1.22460635382238E-16,-1.0,8.99815534876475E-32));
#574=DIRECTION('',(-1.22460635382238E-16,-1.0,8.99815534876475E-32));
#575=DIRECTION('',(-8.0491169285324E-16,8.58844384575287E-33,-1.0));
#576=DIRECTION('',(-8.04911692853239E-16,8.58844384575287E-33,-1.0));
#577=CARTESIAN_POINT('',(-0.787401574803155,-0.787401574803124,0.23622047244094));
#578=DIRECTION('',(-8.04911692853239E-16,8.58844384575287E-33,-1.0));
#579=DIRECTION('',(1.0,-1.10933564796705E-31,-8.04911692853239E-16));
#580=DIRECTION('',(8.04911692853239E-16,-8.58844384575287E-33,1.0));
#581=CARTESIAN_POINT('',(-0.787401574803155,-0.787401574803124,0.23622047244094));
#582=DIRECTION('',(-8.04911692853239E-16,8.58844384575287E-33,-1.0));
#583=DIRECTION('',(1.0,-1.10933564796705E-31,-8.04911692853239E-16));
#584=CARTESIAN_POINT('',(-0.787401574803155,-2.755905511811,0.23622047244094));
#585=DIRECTION('',(-8.04911692853239E-16,8.58844384575287E-33,-1.0));
#586=DIRECTION('',(1.0,-1.10933564796705E-31,-8.04911692853239E-16));
#587=CARTESIAN_POINT('',(-0.787401574803155,-2.755905511811,0.23622047244094));
#588=DIRECTION('',(-8.04911692853239E-16,8.58844384575287E-33,-1.0));
#589=DIRECTION('',(1.0,-1.10933564796705E-31,-8.04911692853239E-16));
#590=CARTESIAN_POINT('',(-2.75590551181103,-0.787401574803124,0.236220472440942));
#591=DIRECTION('',(-8.04911692853239E-16,8.58844384575287E-33,-1.0));
#592=DIRECTION('',(1.0,-1.10933564796705E-31,-8.04911692853239E-16));
#593=CARTESIAN_POINT('',(-2.75590551181103,-0.787401574803124,0.236220472440942));
#594=DIRECTION('',(-8.04911692853239E-16,8.58844384575287E-33,-1.0));
#595=DIRECTION('',(1.0,-1.10933564796705E-31,-8.04911692853239E-16));
#596=DIRECTION('',(1.0,-1.22460635382238E-16,-8.0491169285324E-16));
#597=DIRECTION('',(1.22460635382238E-16,1.0,-8.99815534876475E-32));
#598=DIRECTION('',(-1.0,1.10933564796705E-31,8.0491169285324E-16));
#599=DIRECTION('',(-8.0491169285324E-16,8.58844384575287E-33,-1.0));
#600=DIRECTION('',(-8.04911692853239E-16,8.58844384575287E-33,-1.0));
#601=DIRECTION('',(8.04911692853239E-16,-8.58844384575287E-33,1.0));
#602=DIRECTION('',(-8.04911692853239E-16,8.58844384575287E-33,-1.0));
#603=DIRECTION('',(8.04911692853239E-16,-8.58844384575287E-33,1.0));
ENDSEC;
END-ISO-10303-21;
